Song name
# A B C D E F G H I J K L M N O P Q R S T U V W X Y Z

Gg Allin - Ill Slice Yer Fucking Throat tab

I'LL SLICE YER FUCKING THROAT, by GG Allin & the Murder Junkies.
From the album "Brutality & Bloodshed for All"
Tabbed by Jake Strange (aka, Scumfuc)
Email:  jakestrange@chaosmagic.com

Part 1:
e|------------------------------------------------------------------||
B|------------------------------------------------------------------||
G|--555-----------------------------555-----------------------------||
D|--555--3-33-----------------------555--5--55--4/555--4/555--------||
A|--333--3-33----3-33-----3-33------333--5--55--4/555--4/555--------||
E|-------1-11--0h1-11---0h1-11-----------3--33--2/333--2/333--------||


Verses:
e|----------------|
B|----------------|    Just a G & A chords, how fuckin' simple!
G|----------------|
D|---5----7-------|
A|---5----7-------|
E|---3----5-------|


Chorus: "if you fuck w/ me..."              "I'll slice yer...."
e|---------------------------------||---------------------------||
B|---------------------------------||---------------------------||
G|--7--5--3------------8888888888--||---------------------------||
D|--7--5--3--3--5------8888888888--||-----7----6----5--\--------||
A|--5--3--1--3--5------6666666666--||-----7----6----5---\-------||
E|-----------1--3------------------||-----5----4----3----\------||


The song ends by repeating the 1st part of the chorus & ends on a G#.
Tap to rate this tab
# A B C D E F G H I J K L M N O P Q R S T U V W X Y Z