Song name
# A B C D E F G H I J K L M N O P Q R S T U V W X Y Z

Gg Allin - In This Room tab

In This Room, by GG Allin.
Tabbed by Jake Strange (Scumfuc).
Email:  jakestrange@chaosmagic.com
Played on acoustic guitar. The tuning sounds a
little off from the CD version, but it is correct.

Intro/verses:
e|---------------------------------------------3---------|
B|--7-----7-----7-----7-----7-----7------5-----3------7--|
G|--7-----7-----7-----7-----7-----7------5-----4------7--|
D|--7-----7-----7-----7-----7-----7------5-----5------7--|
A|--5-----5-----5-----5-----5-----5------3-----5------5--|
E|---------------------------------------------3---------|


Chorus:
e|--------------------3-33333-333333-33------------------------3--(3)--|
B|--5-5-555555-55555--3-33333-333333-33--7-7777-7-7-77777-777--3--(3)--|
G|--5-5-555555-55555--4-44444-444444-44--7-7777-7-7-77777-777--4--(4)--|
D|--5-5-555555-55555--5-55555-555555-55--7-7777-7-7-77777-777--5--(5)--|
A|--3-3-333333-33333--5-55555-555555-55--5-5555-5-5-55555-555--5--(5)--|
E|--------------------3-33333-333333-33------------------------3--(3)--|

Very simple, yet one of GG's best in my opinion.
Tap to rate this tab
# A B C D E F G H I J K L M N O P Q R S T U V W X Y Z