Song name
# A B C D E F G H I J K L M N O P Q R S T U V W X Y Z

Gg Allin - Cunt Sucking Cannibal tab

CUNT SUCKING CANNIBAL, by GG Allin
Tabbed by Jake Strange (Scumfuc)
Email:  jakestrange@chaosmagic.com
As with a lot of GG's songs, the tuning to this will sound a
little off from the album version, especially from certain
albums or some of his acoustic stuff, but it's right...anyway....

Intro:
e|-----------------------------------------------|
B|-----------------------------------------------|
G|-----------------------------------------------|
D|------------------------------------------(2)--|
A|-------------------------------------------2---|
E|--3-0-0--3-0-0--3-0--3-0-0--3-0-0--3-0-----0---|   (play 4x)


Verses:
e|------------------------------|
B|------------------------------|
G|--999--5555--777777777777-----|
D|--999--5555--777777777777-----|
A|--777--3333--555555555555-----|
E|------------------------------|


Chorus:
  "Cunt!.........Sucking!"                    "Cannibal!"
e|-----------------------------------||-----------------------|
B|-----------------------------------||-----------------------|
G|--12--------------10---------------||--555--7777-7/9999999--|
D|--12--12--121212--10--10--101010---||--555--7777-7/9999999--|
A|--10--12--121212---8--10--101010---||--333--5555-5/7777777--|
E|------10--101010-------8---8-8-8---||-----------------------|
      (play each of these 4x)
Tap to rate this tab
# A B C D E F G H I J K L M N O P Q R S T U V W X Y Z