Song name
# A B C D E F G H I J K L M N O P Q R S T U V W X Y Z

Gg Allin - Dope Money tab

DOPE MONEY, by GG Allin & Bulge
From the album "Freaks Faggots Drunks & Junkies"
Tabbed by Jake Strange.
Email: scumfuc_69@yahoo.com

Main Riff:
e|------------------||------------------|
B|------------------||------------------|
G|------------------||------------------|
D|------------------||------------------|
A|------------------||--0-0-3-0-5-0-7-7-|
E|--0-0-3-0-5-0-7-7-||------------------|

Chorus:
e|------------------------|
B|------------------------|
G|------------------------|
D|--9-----7-----5-----3---|
A|--9-----7-----5-----3---|
E|--7-----5-----3-----1---|

I've been wrong with some of the tunings of my
other GG tabs. For the songs on this album, try
tuning your guitar a half-step down: Eb Ab Db Gb Bb eb
Tap to rate this tab
# A B C D E F G H I J K L M N O P Q R S T U V W X Y Z