Guitaretab - guitar tabs
Song name
# A B C D E F G H I J K L M N O P Q R S T U V W X Y Z

Gg Allin - I Wanna Fuck Your Brains Out tab

GG Allin
I Wanna Fuck Your Brains Out
Guitar Tab

I looked around in several different sites for this song, but nobody seemed to have it, 
I decided to tab it myself. Its a really easy song called I Wanna Fuck Your Brains 
by a man who needs no introduction, GG Allin.

Intro/Chorus

e-----------------------------------------|
b-----------------------------------------|
g-----------------------------------------|
d12-12-12-12--11-9---7-------------------|
a12-12-12-12--11-9---7-------------------|
e10-10-10-10---9-7---5-pm----------------|

e-----------------------------------------|
b-----------------------------------------|
g-----------------------------------------|
d12-12-12-12--11-9-9-9---7---------------|
a12-12-12-12--11-9-9-9---7---------------|
e10-10-10-10---9-7-7-7---5-pm------------|

Verse
[ Tab from: http://www.guitaretab.com/g/gg-allin/68892.html ]
e-----------------------------------------|
b-----------------------------------------|
g-----------------------------------------|
d-5-5-5-5-5-5-5--7--9-7-------------------| x3
a-5-5-5-5-5-5-5--7--9-7-------------------|
e-3-3-3-3-3-3-3--5--7-5-------------------|

e-----------------------------------------|
b-----------------------------------------|
g-----------------------------------------|
d-12-12-12-12-12-12-12--9-9-9--7-7-7-7---|
a-12-12-12-12-12-12-12--9-9-9--7--7-7-7---|
e-10-10-10-10-10-10-10--7-7-7--5--5-5-5---|

Yeah and thats pretty much the whole song. Theres a solo if you could call it that, 
thats really just shit to me, so Im not going to bother to tab it. However, the verse 
is played behind the solo if that helps at all. Listen to the song for the rhythm and
the order of everything. Easy, right?
Related for I Wanna Fuck Your Brains Out tab