Song name
# A B C D E F G H I J K L M N O P Q R S T U V W X Y Z

Gg Allin - I Wanna Rape You tab

GG Allin
I wanna rape you
Tabbed by Alexi Stenbacka
Aleksi_stenbacka1@hotmail.com

Verse riff
|-----------------|
|-----------------|
|-----------------|
|-5-------7-------|
|-5-------7-------|
|-3-------5-------|

Chorus riff
|-----------------------------|
|-----------------------------|
|-9---7---5---7---4-----------|
|-9---7---5---7---4-----------|
|-7---5---3---5---2-----------|
|-----------------------------|

Like that
Tap to rate this tab
 
# A B C D E F G H I J K L M N O P Q R S T U V W X Y Z