Song name
# A B C D E F G H I J K L M N O P Q R S T U V W X Y Z

Gg Allin - Highest Power tab

This is the first track off of Brutality and Bloodshed For All, which is my favorite Gg 
album. The intro riff is also the riff played after verse 1 and 2.


            Intro
|-----------------------------|
|-----------------------------|
|-----------------------------|
|---7--5--7/-----7--5--7/-----|
|---5--3--5/-----5--3--5/-----|
|-----------------------------|


  1st verse    (strum relentlessly)
|------------------------------------|
|------------------------------------|
|-2-2-2-2-2-2-2-2-2-2-2-2-2-2-2-2-2--|
|-2-2-2-2-2-2-2-2-2-2-2-2-2-2-2-2-2--|
|-0-0-0-0-0-0-0-0-0-0-0-0-0-0-0-0-0--|
|------------------------------------|
  Your god fucked me up the ass
  Jesus Christ sucked my fucking ass
  Your bible is such a piece of trash
  I am the highest power,
  the leader of the pack


|-----------------------------|
|-----------------------------|
|-----------------------------|
|---7--5--7/-----7--5--7/-----|
|---5--3--5/-----5--3--5/-----|
|-----------------------------|

  2st verse    (strum relentlessly)
|------------------------------------|
|------------------------------------|
|-2-2-2-2-2-2-2-2-2-2-2-2-2-2-2-2-2--|
|-2-2-2-2-2-2-2-2-2-2-2-2-2-2-2-2-2--|
|-0-0-0-0-0-0-0-0-0-0-0-0-0-0-0-0-0--|
|------------------------------------|
  Hail Mary is so full of shit
  Virgin Mary I'll rape that fucking clit
  Jesus Christ was the son of a bitch
  I am the highest power,
  the leader of the pack

|-----------------------------|
|-----------------------------|
|-----------------------------|
|---7--5--7/-----7--5--7/-----|
|---5--3--5/-----5--3--5/-----|
|-----------------------------|

  3st verse    (strum relentlessly)
|------------------------------------|
|------------------------------------|
|-2-2-2-2-2-2-2-2-2-2-2-2-2-2-2-2-2--|
|-2-2-2-2-2-2-2-2-2-2-2-2-2-2-2-2-2--|
|-0-0-0-0-0-0-0-0-0-0-0-0-0-0-0-0-0--|
|------------------------------------|

Your church, let's burn it to the ground
Priests and nuns,
let's put them in the ground
We don't need those lames
to hold us back
I am the highest power,
the leader of the pack


|--10-8-10~/-------|
|------------------|
|------------------|
|------------------|
|------------------|
|------------------|
Tap to rate this tab
 
# A B C D E F G H I J K L M N O P Q R S T U V W X Y Z