Song name
# A B C D E F G H I J K L M N O P Q R S T U V W X Y Z

Gh Matos Rodriguez - La Cumparsita tab

-------------------------------------------------------------------------------
                        CUMPARSITA - Gerardo Matos Rodríguez
-------------------------------------------------------------------------------
Legendary tango from G.M. Rodriguez.

Tabbed by: Gio Chanturia
E-mail: chanto2011@live.com
Music: http://soundcloud.com/gio-chanturia/la-cumparsita

1st Part:

e|----0--10-7-4----0-1-0---0---0--12-8--5----0-1---0--||
B|----0--9--9-3------0---4-0---1--10-10-5------1-4-1--||
G|----1--7--7-4--1---1---1-1---2--9--9--5--2---2-2-2--||
D|----2----------0-------2-----2-----------2-----2----||
A|----2----------2-------------0----0------0----------||
E|----0---0------0-------------0-----------0----------||

2nd Part:

e|-------------5-4-5---4-5-4-5-4--------------5-4-5---4-5-4-5-4----12-10-12--|
B|-------------6---6-----6---6----------------5---5-----5---5------9-----9---|
G|-------------7---7-----7---7----------------5---5-----5---5------9-----9---|
D|----------0--------0-------------------------------------------------------|
A|--0-2-3-4-----0---0----------------------0--------0------------------------|
E|---------------------------------0-2-3-4-----0---0-------------0---0-------|

e|----10-8-7-----4--5-----5--||
B|-----------10-----------5--||
G|---------------4--5-----5--||
D|------------------------7--||
A|------------------------7--||
E|--0------------------0--5--||

3rd Part:

e|--------------------------------5---3---1-0-0-------------7---5---4--------|
B|-----0-1-------0-1-0------------------------3----3-------------------------|
G|---2---------2---------2--------------------1----1-------------------------|
D|------------------------------7---5---3-----2----2------9---7---6-------3--|
A|---0-------0----------------0---------------2--2---2----------------7------|
E|---------0-----------0---0------------------0---------0---------------0----|

e|---1---0------------------------------------0------------------------------|
B|-----------------3---3-1-0--------0-1-0-1-3---------0-1-------0-1-0--------|
G|----------------------------2-1-2-----------------2---------2---------2----|
D|-----2---------0-----------------------------------------------------------|
A|----------2-----------------0-----------------0---0-------0----------------|
E|-------------0-----0------------------------------------0-----------0---0--|

e|-------5---3---1-0----------------5-5-4-5----0---5-5-4-5----0-7-4-0--------|
B|-------------------3--------3/6-----6---6--1---5---5---5------------3------|
G|---------------------2----------7---7---7------5---5---5----------------1--|
D|-----7---5---3-----0---3-2------7-----------------------------0------------|
A|---0------------------------0-------------------------------------3---2----|
E|----------------------------------------------------------0----------------|

e|--------5--||
B|--------5--||
G|---2----5--||
D|--------7--||
A|---0----7--||
E|-----0--5--||


************************************

| /   slide up
| \   slide down
| h   hammer-on
| p   pull-off
| ~   vibrato
| +   harmonic
| x   Mute note
| b   Bend
| pb  Pre-bend
| br  Bend release
| pbr Pre-bend release
| brb Bend release bend

************************************
Tap to rate this tab
# A B C D E F G H I J K L M N O P Q R S T U V W X Y Z