Song name
# A B C D E F G H I J K L M N O P Q R S T U V W X Y Z

Ghinzu - The Dragster Wave tab

----------------------------------------------------------------------------
			  The Dragster Wave - Ghinzu
----------------------------------------------------------------------------
Tabbed by: Karleen Heong
Email: the_aurora_australis@hotmail.com

Tuning: Standard (EADGBe)

If anyone has seen the movie Taken, this was in the end credits.
The original song is actually about 6 minutes long but I'm tabbing the
movie version where it starts about half-way through the song with the
piano solo.

This is the guitar stuff which starts near the end of the piano solo.
By the way, if anyone wants the piano music, I've worked it out so 
email me.


| pm palm mute 
| /  slide up
| ~  vibrato
| x  Mute note

Intro: (44 sec into piano solo)

Guitar 1: Overdrive
e|---------------------------------------------------|
B|-----------------------------------------Go--------|
G|----------------------------------------straight---|
D|--------5------------------17--15--------to next---|
A|-5--8-5----8-5--/12--15-12---------12-----line-----|  
E|---------------------------------------------------|
  (slightly pm)                                      | Play 3 times
                                                     |
e|---------------------------------------------------|  
B|---------------------------------------------------|
G|---------------------------------------------------|
D|-----------19--17-15--------15-----14-----14-------|
A|-13--17-13---------------15---15------15-----15----| 
E|----------------------13--------15------15-----15--|

Guitar 2: Distortion (enters on guitar 1's third time)
e|-------------------------------------------------------------------------|
B|-------------------------------------------------------------------------|
G|-77777777-77777777-------------------------------------------------------|
D|-77777777-77777777-77777777-77777777-88888888-88888888-33333333-33333333-|
A|-55555555-55555555-77777777-77777777-88888888-88888888-33333333-33333333-|
E|-------------------55555555-55555555-66666666-66666666-11111111-11111111-|

Verse 1: 
Both guitars:
e|-----------------------------------------------------------------------|
B|-----------------------------------------------------------------------|
G|77777777-77777777-55555555-55555555------------------------------------|
D|77777777-77777777-55555555-55555555-88888888-88888888-33333333-33333333|x2
A|55555555-55555555-33333333-33333333-88888888-88888888-33333333-33333333|
E|------------------------------------66666666-66666666-11111111-11111111|

Chorus 1:
Both guitars
e|--------------------------------------|
B|--------------------------------------|
G|-7777-xx-7-777-xx--6666-xx-6-666-xx---|
D|-7777-xx-7-777-xx--7777-xx-7-777-xx---|
A|-5555-xx-5-555-xx--4444-xx-4-444-xx---|
E|--------------------------------------|  
                                            Play 2 times
e|--------------------------------------|
B|--------------------------------------|
G|-------------------6666-xx-8-886-xxx--|
D|-8888-xx-8-888-xx--8888-xx-8-888-xxx--|
A|-8888-xx-8-888-xx--8888-xx-8-888-xxx--|
E|-6666-xx-6-666-xx---------------------|

Post-Chorus 1:
Guitar 1: Overdrive
e|---------------------------------------|
B|---------------------------------------|
G|---------------------------------------|
D|--------5------------------15--14~~----|
A|-5--8-5----8-5--/10--13-10-------------|
E|---------------------------------------|

e|---------------------------------------|
B|---------------------------------------|
G|---------------------------------------|
D|-----------17--15~~-----------19--17~~-|
A|-12--15-12----------13--16-13----------|
E|---------------------------------------|

Guitar 2: Distortion
e|-------------------------------------------------------------------------|
B|-------------------------------------------------------------------------|
G|-77777777-77777777-------------------------------------------------------|
D|-77777777-77777777-55555555-55555555-77777777-77777777-88888888-888888888|
A|-55555555-55555555-55555555-55555555-77777777-77777777-88888888-888888888|
E|-------------------33333333-33333333-55555555-55555555-66666666-666666666|


*Verse 2: same as verse 1

*Chorus 2: same as chorus 1

*Post-Chorus 2: play post-chorus 1 twice


Optional Guitar 3 enters at end of Chorus 2
e|-----------------------------------------|
B|---21------------------------------------|
G|-----------------------------------------|
D|-bend and release -----------------------|
A|-as you think----------------------------|
E|-----------------------------------------|


That's all, it's quite simple. I might make a bass tab as well.
Also, if you're looking for the first half of the original song,
there's a nice guitar pro tab somewhere on 911 tabs.

Email me if you have questions or want me to post a vid or something.
And have fun!


===========================================================================
Tap to rate this tab
 
# A B C D E F G H I J K L M N O P Q R S T U V W X Y Z