Ghinzu - Do You Read Me Acoustic tab

--------------------------------------------------------------------------
                             DO YOU READ ME? - Ghinzu
--------------------------------------------------------------------------
Tabbed by: DrunkStone
Email:

Tuning:Standard tuning

NOTES: This tab is from the acoustic version. I found it by ear and by looking at the 
video so if there is any mistakes, tell me please :) and if anyone could help me to 
complete the solo part , it would be nice :) I hope my tab is correct , and if it is enjoy it.

Intro & Verses:

Riff 1.
               F#m
e|----------------------------------|
B|----------------------------------|
G|------2--1--------2---1---2-------|
D|----------------------------------|
A|----4--4----4---4---4---4---4-----|
E|--2-----------2-------------------|

Riff 2.

                A
e|----------------------------------|
B|----------------------------------|
G|------6---4-------6---4---6-------|
D|----------------------------------|
A|----7---7---7---7---7---7---7-----|
E|--5-----------5-------------------|

Variation for riff 2:


                A
e|------------------------------------|
B|-------------------5----------------|
G|-------6---4---6-------6---4---6----|
D|------------------------------------|
A|-----7---7---7---7---7---7---7------|
E|---5--------------------------------|

Riff 3.

               C#
e|---------------------------------------|
B|---------------------------------------|
G|-------10---9---------10---9----10-----|
D|---------------------------------------|
A|----11---11---11---11---11---11----11--|
E|--9--------------9---------------------|

Chorus

      E     D    E    Dm       A          C#
e|----9-----10---9-----5-------------------------------|
B|----10----10---10----6-------5----------9------------|
G|----11----11---11----7-------6----------10-----------|
D|----11----12---11----7-------7----------11-----------|
A|----9-----12---9-----5-------7----------11-----------|
E|----------10-----------------------------------------|


Part before the solo :

           A     C#    E     A
e|---------5-----9-----9-----5---------------------------|
B|---------5-----9-----10----5---------------------------|
G|---------6-----10----11----6---------------------------|
D|---------7-----11----11----7---------------------------|
A|---------7-----11----9-----7---------------------------|
E|---------5-----9-----------5---------------------------|

Solo :

e|------------------------------------------------------------------------|
B|-14-14-14-14-12-12-12-12-10-10-10-10-9-9-9-9-7-7-7-7-5-5-5-5---5-7-5b-5-|
G|-------------------------------------------------------------6----------|
D|------------------------------------------------------------------------|
A|------------------------------------------------------------------------|
E|------------------------------------------------------------------------|

         A        C#
e|-------5--------9------------|
B|-------5--------9------------|
G|-------6--------10-----------|
D|-------7--------11-----------|
A|-------7--------11-----------|
E|-------5--------9------------|


************************************

| /   slide up
| \   slide down
| h   hammer-on
| p   pull-off
| ~   vibrato
| +   harmonic
| x   Mute note
| b   Bend
| pb  Pre-bend
| br  Bend release
| pbr Pre-bend release
| brb Bend release bend

*************************************
Tap to rate this tab
 
# A B C D E F G H I J K L M N O P Q R S T U V W X Y Z