Song name
# A B C D E F G H I J K L M N O P Q R S T U V W X Y Z

Ghost Brigade - 2222 Nihil tab

Drop C tuning.

Main clean riff. (The distorted part is just the same as this as well and doesn't use any chords) 

|--------------------------------------------------------------------------|
|--1------1-------0-----0--------------------------------------------0-----|
|----0------0-------0-----0----------0-----0------------0-----0--0---------|
|---------------------------------5------5--------(5)/7-----7------7-------|
|-0----0------0-2-----2------------------------------------------------(5)-|
|----------------------------0-2-------2------2-0---------0----------------|

The chords over the more melodic part towards the end are; Am, C, Em, D.

Melody:

  Am                               C
|--8-8-8-8-8-8-8-8-8-8-8-8-7-7-7-7---------------------------------|
|----------------------------------8-8-8-8-8-8-8-8-8-8-8-8-5-5-8-8-|
|--5-5-5-5-5-5-5-5-5-5-5-5-4-4-4-4---------------------------------|
|----------------------------------5-5-5-5-5-5-5-5-5-5-5-5-2-2-5-5-|
|------------------------------------------------------------------|
|------------------------------------------------------------------|

  Em                               D
|--7-7-7-7-7-7-7-7-7-7-7-7-7-7-7-7-5-5-5-5-5-5-5-5-5-5-5-5-5-5-5-5-|
|------------------------------------------------------------------|
|--4-4-4-4-4-4-4-4-4-4-4-4-4-4-4-4-2-2-2-2-2-2-2-2-2-2-2-2-2-2-2-2-|
|------------------------------------------------------------------|
|------------------------------------------------------------------|
|------------------------------------------------------------------|

2nd time around:

  Am                               C
|--8-8-8-8-8-8-8-8-8-8-8-8-7-7-7-7---------------------------------|
|----------------------------------8-8-8-8-8-8-8-8-8-8-8-8-5-5-8-8-|
|--5-5-5-5-5-5-5-5-5-5-5-5-4-4-4-4---------------------------------|
|----------------------------------5-5-5-5-5-5-5-5-5-5-5-5-2-2-5-5-|
|------------------------------------------------------------------|
|------------------------------------------------------------------|

  Em                               D
|--7-7-7-7-7-7-7-7-7-7-7-7-7-7-7-7-10-10-10-10-10-10-10-10-10-10-10|
|------------------------------------------------------------------|
|--4-4-4-4-4-4-4-4-4-4-4-4-4-4-4-4-7-7-7-7-7-7-7-7-7-7-7-7-7-7-7-7-|
|------------------------------------------------------------------|
|------------------------------------------------------------------|
|------------------------------------------------------------------|

Tap to rate this tab
 
# A B C D E F G H I J K L M N O P Q R S T U V W X Y Z