Song name
# A B C D E F G H I J K L M N O P Q R S T U V W X Y Z

Ghost Brigade - My Heart Is A Tomb tab

Hello guys, I made it by ear this morning, hope it's right.
Tunnig Drop C

D|------------------------------------------------------------|
A|-------0-------------0---0----------------------------------|
F|---5-------5-7---7-5---5------------------------------------|
C|------------------------------------------------------------|
G|-0---0---0-----0--------------------------------------------|
C|------------------------------------------------------------|

Then

D|-------0----------------------------------------------------|
A|-----------0------------------------------------------------|
F|---7-5---7---5-5--------------------------------------------|
C|------------------------------------------------------------|
G|-0----------------------------------------------------------|
C|------------------------------------------------------------|

Play this 3 times then play

D|-------0----------------------------------------------------|
A|-----------0------------------------------------------------|
F|---5-7---7---5-5--------------------------------------------|
C|------------------------------------------------------------|
G|-0----------------------------------------------------------|
C|------------------------------------------------------------|
Tap to rate this tab
 
# A B C D E F G H I J K L M N O P Q R S T U V W X Y Z