Song name
# A B C D E F G H I J K L M N O P Q R S T U V W X Y Z

Ghost K - Stop tab

GhostK-Stop
Or otherwise none as Supersence-Antonio De Leva

e|--------11---------------10-------------10------------10---------|
B|-----------------------------------------------------------------|
G|----12-----12--------12-----12----8--12----12---7--12----12------|
D|-10--------------10----------------------------------------------|
A|-----------------------------------------------------------------|
E|-----------------------------------------------------------------|

e|-------11-----15-----11--10-----------10------------10---------|
B|---------------------------------------------------------------|
G|----12----12-----12------------8--12-----12---7--12----12------|
D|-10------------------------------------------------------------|
A|---------------------------------------------------------------|
E|---------------------------------------------------------------|

Tap to rate this tab
 
# A B C D E F G H I J K L M N O P Q R S T U V W X Y Z