Guitaretab - guitar tabs
Song name
# A B C D E F G H I J K L M N O P Q R S T U V W X Y Z

Ghost Machine - Vegas Moon tab

www.ghostmachine.net

Vegas Moon from Ghost Machine
Tuning: ADGCFA

~ means let note ring
. means palm mute

Intro(clean)
---------------------------|
---------------------------|
---------------------------|
----4---------7-------2----|
--4---4-4~--7--7---2---2-2-|
-2-2---2---5-5--5-0--0--0--|

Main(just the intro played with distortion)
[ Tab from: http://www.guitaretab.com/g/ghost-machine/81221.html ]
Verse(very light PM, listen for how long this goes for)
----------|
----------|
----------|
----------|
-4-4-4-4--|
-2-2-2-2--|

-play Main
-play Verse
-play Main

Interlude
----------------------------------------|
----------------------------------------|
---------7---6---7-----------7---6---4--|
---------7-x-6-x-7-----------7-x-6-x-4--|
-4444444-5-x-4-x-5---4444444-4-x-4-x-2--|
-2222222-------------2222222------------|
 .......             .......

Intro(clean of course)
Related for Vegas Moon tab
Advertisement will be closed in 10 seconds