Song name
# A B C D E F G H I J K L M N O P Q R S T U V W X Y Z

Ghost Of The Robot - Blocking Brainwaves tab

-----------------------------------------------------------------------------
			     Blocking Brainwaves - Ghost Of The Robot
-----------------------------------------------------------------------------
Tabbed by: giddy_michelle

Tuning: Standard

Intro/Verse
e|--------------------------------------------------------------------------|
B|--------------------------------------------------------------------------|
G|--------------------------------------------------------------------------|
D|---77-77-77-77--66-66-66-66--44-44-44-44/6--77-77-77-77-------------------|
A|---77-77-77-77--66-66-66-66--44-44-44-44/6--77-77-77-77-------------------|
E|---55-55-55-55--44-44-44-44--22-22-22-22/4--55-55-55-55-------------------|

Chorus
e|--------------------------------------------------------------------------|
B|--------------------------------------------------------------------------|
G|--------------------------------------------------------------------------|
D|---99999999--66666666--77777777--44444444--99999999--66666666-Then--------|
A|---99999999--66666666--77777777--44444444--77777777--66666666-straight----|
E|---77777777--44444444--55555555--22222222--77777777--44444444-into verse--|

Not sure how the bridge goes, then...

Outro
e|--------------------------------------------------------------------------|
B|--------------------------------------------------------------------------|
G|--------------------------------------------------------------------------|
D|---77-77-77-77-76---------------------------------------------------------|
A|---77-77-77-77-76---------------------------------------------------------|
E|---55-55-55-55-54---------------------------------------------------------|




| /  slide up
=============================================================================
Tap to rate this tab
 
# A B C D E F G H I J K L M N O P Q R S T U V W X Y Z