Song name
# A B C D E F G H I J K L M N O P Q R S T U V W X Y Z

Ghost Town - Off With Her Head Acoustic tab

Ghost Town  Off With Her Head (Acoustic)

Tuning - Whole Step Down + Drop C

Verse 1:
D |-------------------------------------|
A |-------------------------------------|
F |-------------------------------------|
C |-------------------------------------|
G |-------------------------------------|
C |-7--------6--------5--------4--------| x1

D |--------------------------------------0---------|
A |------------------------------------------------|
F |------------------------------------------------|
C |-----9-9/10-9------9-9/10-9-------9-9/10-----7--|
G |---7------------7-------------7----------5------|
C |-7------------6-------------5-------------4-----| x2

D |-------------------------------------------------|
A |-------------------------------------------------|
F |-------------------------------------------------|
C |-----9-9/10-9------3-3/5--3-0------5-5/7-5--3-9--|
G |---7------------0--------------3------------5----|
C |-7------------0--------------3--------------5----| x2

Chorus:
D |-0------0------0------0------|
A |-0------0------0------0------|
F |-5------4------5------2------|
C |-7------5------5------3------|
G |-7------5------3------3------|
C |-7------5-------------3------| x2

Verse 2:
D |--------------------------------------0----------|
A |-------------------------------------------------|
F |-------------------------------------------------|
C |-----9-9/10-9------9-9/10-9-------9-9/10-----7---|
G |---7------------7-------------7----------5-------|
C |-7------------6-------------5-------------4------| x2

D |-------------------------------------------------|
A |-------------------------------------------------|
F |-------------------------------------------------|
C |-----9-9/10-9------3-3/5-3-0-------5-5/7-5-3-9---|
G |---7------------0--------------3-----------5-----|
C |-7------------0--------------3-------------5-----| x1

Chorus:
D |-0------0------0------0------|
A |-0------0------0------0------|
F |-5------4------5------2------|
C |-7------5------5------3------|
G |-7------5------3------3------|
C |-7------5-------------3------|x2


Bridge (a):
D |-0------0------3------0------|
A |-0------0------3------0------|
F |-5------7------5------2------|
C |-7------5------5------3------|
G |-7------5------3------3------|
C |-7------5-------------3------|x2

Bridge (b):
D |-0------3------0------------|
A |-0------3------0------------|
F |-9------5------5------------|
C |-7------5------3------------|
G |-7------3------3------------|
C |-7-------------3------------|x4

Chorus:
D |-0------0------0------0------|
A |-0------0------0------0------|
F |-5------4------5------2------|
C |-7------5------5------3------|
G |-7------5------3------3------|
C |-7------5-------------3------|x2
 
Tap to rate this tab
 
# A B C D E F G H I J K L M N O P Q R S T U V W X Y Z