Song name
# A B C D E F G H I J K L M N O P Q R S T U V W X Y Z

Ghost Town - Youre So Creepy Acoustic tab

-------------------------------------------------------------------------------
                             SONG NAME - Band Name
-------------------------------------------------------------------------------
Tabbed by: MalinaAIF
E-mail: malinalanguagelink@ymail.com

Tuning: Drop C

Intro:
|----x--x-----x--x-----x--x--x------------------------------------------------|
|----x--x-----x--x-----2--2--2------------------------------------------------|
|----7--7-----3--3-----2--2--2------------------------------------------------|
|----7--7-----3--3-----2--2--2-----2h3p2--------------------------------------|
|----5--5-----1--1-----x--x--x------------4h5---------------------------------|
|----x--x-----x--x-----x--x--x------------------------------------------------| [x4]

Verse:
|----x-------x-------x----------------------------------------------------|
|----x-------x-------2----------------------------------------------------|
|----7-------3-------2----------------------------------------------------|
|----7-------3-------2----------------------------------------------------|
|----5-------1-------x----------------------------------------------------|
|----x-------x-------x----------------------------------------------------|

Chorus:
|----x-------x-------x-------x------------------------------------------------|
|----x-------2-------x-------x------------------------------------------------|
|----7-------2-------3-------5------------------------------------------------|
|----7-------2-------3-------5------------------------------------------------|
|----5-------x-------1-------3------------------------------------------------|
|----x-------x-------x-------x------------------------------------------------|

Bridge
|----x--x-----x--x-----x--x--x------------------------------------------------|
|----x--x-----x--x-----2--2--2------------------------------------------------|
|----7--7-----3--3-----2--2--2------------------------------------------------|
|----7--7-----3--3-----2--2--2-----2h3p2--------------------------------------|
|----5--5-----1--1-----x--x--x------------4h5---------------------------------|
|----x--x-----x--x-----x--x--x------------------------------------------------|

Breakdown:
|----x--x--x---x--x--x---x--x--x-----x-x-x--------------------------------------|
|----x--x--x---x--x--x---x--x--x-----x-x-x--------------------------------------|
|----7--7--x---7--7--x---7--7--x-----7-6-9--------------------------------------|
|----7--7--x---7--7--x---7--7--x-----7-6-9--------------------------------------|
|----7--5--x---5--5--x---5--5--x-----5-4-7--------------------------------------|
|----x--x--x---x--x--x---x--x--x-----x-x-x--------------------------------------|

|----x--x--x---x--x--x---x--x--x-----x-x-x--------------------------------------|
|----x--x--x---x--x--x---x--x--x-----x-x-x--------------------------------------|
|----7--7--x---7--7--x---7--7--x-----7-6-9--------------------------------------|
|----7--7--x---7--7--x---7--7--x-----7-6-9--------------------------------------|
|----7--5--x---5--5--x---5--5--x-----5-4-7--------------------------------------|
|----x--x--x---x--x--x---x--x--x-----x-x-x--------------------------------------|

Chorus:
|----x-------x-------x-------x------------------------------------------------|
|----x-------2-------x-------x------------------------------------------------|
|----7-------2-------3-------5------------------------------------------------|
|----7-------2-------3-------5------------------------------------------------|
|----5-------x-------1-------3------------------------------------------------|
|----x-------x-------x-------x------------------------------------------------|


************************************

| /   slide up
| \   slide down
| h   hammer-on
| p   pull-off
| ~   vibrato
| +   harmonic
| x   Mute note
| b   Bend
| pb  Pre-bend
| br  Bend release
| pbr Pre-bend release
| brb Bend release bend

************************************
Tap to rate this tab
# A B C D E F G H I J K L M N O P Q R S T U V W X Y Z