Song name
# A B C D E F G H I J K L M N O P Q R S T U V W X Y Z

Ghost Town - Voodoo tab

“Voodoo”
By Ghost Town
Tabbed by BPAHIG

Intro I
C# |-----------------------------------------------------------------------|
G# |-----11-11-----11-11-----9-9-----9-9-----7-7-----7-7-----6-6-----6-6---|
E  |---9---------9---------7-------7-------5-------5-------4-------4-------|
B  |-9---------9---------7-------7-------5-------5-------4-------4---------|
F# |-----------------------------------------------------------------------|
B  |-----------------------------------------------------------------------|
     * * *  *  * * *  *  * * * * * * * * * * * * * * * * * * * * * * * *

Intro II Guitar I
C# |-----------------------------------------------------------------------|
G# |-----------------------------------------------------------------------|
E  |-----------------------------------------------------------------------|
B  |-9-9--9-9--7-7--7-7--5-5--5-5--4-4--4-4--------------------------------|
F# |-9-9--9-9--7-7--7-7--5-5--5-5--4-4--4-4--------------------------------|
B  |-9-9--9-9--7-7--7-7--5-5--5-5--4-4--4-4--------------------------------|

Intro II Guitar II
C# |-----------------------------------------------------------------------|
G# |-----------------------------------------------------------------------|
E  |-----------------------------------------------------------------------|
B  |-----------------------------------------------------------------------|
F# |-9>>-7>>-5>>-4>>-------------------------------------------------------|
B  |-----------------------------------------------------------------------|
     *   *   *   *

Chorus
C# |-----------------------------------------------------------------------|
G# |-----------------------------------------------------------------------|
E  |-----------------------------------------------------------------------|
B  |-9-9-9-9-9-9-9-9-9-7-7-7-7-7-7-7-7-5-5-5-5-5-5-5-5-4-4-4-4-4-4-4-4-----|
F# |-9-9-9-9-9-9-9-9-9-7-7-7-7-7-7-7-7-5-5-5-5-5-5-5-5-4-4-4-4-4-4-4-4-----|
B  |-9-9-9-9-9-9-9-9-9-7-7-7-7-7-7-7-7-5-5-5-5-5-5-5-5-4-4-4-4-4-4-4-4-----|

Verse
C# |-----------------------------------------------------------------------|
G# |-----------------------------------------------------------------------|
E  |-----------------------------------------------------------------------|
B  |-9-9----10----------10-9-7-7----8---------8-7-5-5----6---------6-5-----|
F# |-9-9--9----9-9-10-9------7-7--7---7-7-8-7-----5-5--5---5-5-6-5---------|
B  |-9-9---------------------7-7------------------5-5----------------------|
     * *  * *  * * *  * *  * * *  * * * * * * * * * *  * * * * * * * *

C# |-----------------------------------------------------------------------|
G# |-----------------------------------------------------------------------|
E  |-----------------------------------------------------------------------|
B  |-4-4----5---------5-4--------------------------------------------------|
F# |-4-4--4---4-4-5-4------------------------------------------------------|
B  |-4-4-------------------------------------------------------------------|
     * *  * * * * * * * *

Bridge
C# |-----------------------------------------------------------------------|
G# |-----------------------------------------------------------------------|
E  |-----------------------------------------------------------------------|
B  |-9-9-9-9-9-9-9-9--7-7-7-7-7-7-7-7--5-5-5-5-5-5-5-5--4-4-4-4-4-4-4-4----|
F# |-9-9-9-9-9-9-9-9--7-7-7-7-7-7-7-7--5-5-5-5-5-5-5-5--4-4-4-4-4-4-4-4----|
B  |-9-9-9-9-9-9-9-9--7-7-7-7-7-7-7-7--5-5-5-5-5-5-5-5--4-4-4-4-4-4-4-4----|

Outro
C# |-----------------------------------------------------------------------|
G# |-----------------------------------------------------------------------|
E  |-----------------------------------------------------------------------|
B  |-9----7----5----4------------------------------------------------------|
F# |-----------------------------------------------------------------------|
B  |-----------------------------------------------------------------------|


Legend
\  = Shift Slide Down
/  = Shift Slide Up
>> = Tremolo Picking
*  = Palm Mute
() = Pinch Harmonic
b  = Bend
v  = Vibrato
~  = Sustain
h  = Hammer On
p  = Pull Off
Tap to rate this tab
 
# A B C D E F G H I J K L M N O P Q R S T U V W X Y Z