Song name
# A B C D E F G H I J K L M N O P Q R S T U V W X Y Z

Ghost - Elizabeth tab

---------------------------------------------------------------------------
          Ghost B.C.
"Elizabeth" By ghost , off the album Opus Eponymous

Tabbed by kk3vinm

Email me for corrections or song you want me to tab,etc..: mkevin506@gmail.com

Tuning: 1 step down (D C G F A D)

Listen to the song for perfect timing

-This is my first time doing a tab so i'll try my best x)  Ignore the
"measure #' that was just for me to know where everything goes.

ENJOY!!!

----------------------------------------------------------------------------
Gtr 1      p.m          p.m           p.m
|-------------------------------------------------------------|
|-------------------------------------------------------------|
|-------------------------------------------------------------|
|--10------------12/14--------15\14-------15/17-----17\13~----|
|--8-------------12/14--------15\14-------15/17-----17--------|
|----------0-------------0-0----------0----------0------------|
Gtr 2
|-----------------------------------------------------------|
|-----------------------------------------------------------|
|-----------------------------------------------------------|
|--10----------7/9--------10\9------10/12--------12---------|
|--8-----------5/7---------8\7-------8/10--------10-----6~--|
|---------0----------0-0---------0-----------0----------6~--|

Gtr1&2
|-----------------------------------------------------------|
|-----------------------------------------------------------|
|-----------------------------------------------------------|
|-----------------------------------------------------------|
|----7-------------7----------------------------------------|
|-0-----8---0-0--------6---0-0-----6h9-6h9-6-----3h4-3------|




{REPAEAT INTRO}

Gtr1
|--------------------------------|
|--------------------------------|
|--------------------------------|
|--------------------------------|
|--------------------------------|
|--------------------------------|
Gtr2             {riff 1)
|--------------------------------|
|--------------------------------|
|--------------------------------|
|--------------------------------|
|--6---------6---------------5h7-|
|--4-4-4-4-4-4--4-4-4-4--4h6-----|

[Then the riffs are played at the same time untill the chorus]



Gtr1&2

|--------------------------------|
|--------------------------------|
|--------------------------------|
|--------------------------------|
|--------------------------------|
|--4---4-4-4-4-4-4--4---6---3---5|

Gtr1&2
|--------------------------------|
|--------------------------------|
|--------------------------------|
|--------------------------------|
|--6---------6---------------5h7-|
|--4-4-4-4-4-4--4-4-4-4--4h6-----|

Gtr1&2
|-----------------------|
|-----------------------|
|-----------------------|
|-----------------------|
|-----------------------|
|--4--4-4--6\3--5-------|

Gtr1&2
|--------------------------------|
|--------------------------------|
|--------------------------------|
|--------------------------------|
|--6---------6---------------5h7-|
|--4-4-4-4-4-4--4-4-4-4--4h6-----|


Gtr1&2

|--------------------------------|
|--------------------------------|
|--------------------------------|
|--------------------------------|
|--------------------------------|
|--4---4-4-4-4-4-4--4---6---3---5|

Gtr1&2
|--------------------------------|
|--------------------------------|
|--------------------------------|
|--------------------------------|
|--6---------6---------------5h7-|
|--4-4-4-4-4-4--4-4-4-4--4h6-----|

Gtr1&2
|-----------------------|
|-----------------------|
|-----------------------|
|-----------------------|
|-----------------------|
|--4--4-4--6\3--5-------|

Gtr1&2
|---------------------------|
|---------------------------|
|---------------------------|
|---------------------------|
|---8----------8----------8-|
|---6-6-6-6-6--6-6-6-6-6--7-|

Gtr1&2
|--------------------|
|--------------------|
|--------------------|
|--------------------|
|--8-------9--2--10--|
|--6--6-6--7--0---8--|

Gtr1&2
|--------------------------------|
|--------------------------------|
|--------------------------------|
|--------------------------------|
|--6---------6---------------5h7-|
|--4-4-4-4-4-4--4-4-4-4--4h6-----|

Gtr1&2

|--------------------------------|
|--------------------------------|
|--------------------------------|
|--------------------------------|
|--------------------------------|
|--4---4-4-4-4-4-4--4---6---3---5|

Gtr1&2
|--------------------------------|
|--------------------------------|
|--------------------------------|
|--------------------------------|
|--6---------6---------------5h7-|
|--4-4-4-4-4-4--4-4-4-4--4h6-----|

Gtr1&2
|-----------------------|
|-----------------------|
|-----------------------|
|-----------------------|
|-----------------------|
|--4--4-4--6\3--5-------|

Gtr1&2
|--------------------------------|
|--------------------------------|
|--------------------------------|
|--------------------------------|
|--6---------6---------------5h7-|
|--4-4-4-4-4-4--4-4-4-4--4h6-----|


Gtr1&2

|--------------------------------|
|--------------------------------|
|--------------------------------|
|--------------------------------|
|--------------------------------|
|--4---4-4-4-4-4-4--4---6---3---5|


Gtr1&2
|---------------------------|
|---------------------------|
|---------------------------|
|---------------------------|
|---8----------8----------8-|
|---6-6-6-6-6--6-6-6-6-6--7-|


Gtr1&2
|--------------------|
|--------------------|
|--------------------|
|--------------------|
|--8-------9--2--10--|
|--6--6-6--7--0---8--|


Gtr1&2
|--------------------------------|
|--------------------------------|
|--------------------------------|
|--------------------------------|
|--6---------6---------------5h7-|
|--4-4-4-4-4-4--4-4-4-4--4h6-----|


Gtr1&2
|-----------------------|
|-----------------------|
|-----------------------|
|-----------------------|
|-----------------------|
|--4--4-4--6\3--5-------|

Chorus-----------------------

Gtr1&2

|----------------------------|
|----------------------------|
|----------------------------|
|----------------------------|
|----------3~~---------------|
|----------1~~---------------|


Gtr 1

|---------------------------|
|---------------------------|
|----------------7----------|
|---10-----6-----x-----5----|
|----x-----x-----5-----x----|
|----8-----4-----------3----|

Gtr2
|---------------------------|
|---------------------------|
|---------------------12----|
|---13----10----12----12----|
|---15----11----12----------|
|---------------------------|

Gtr1
|-------------------------------------|
|-------------------------------------|
|--------------------------7----------|
|----10----6------13\-5----x----------|
|-----x----x-------x\-x----5---8---8~~|
|-----8----4------11\-3----------8----|

Gtr2
|--------------------------------------|
|--------------------------------------|
|-----12----13----12-----12---10----10~|
|-----13----13----13-----12------10----|
|--------------------------------------|
|--------------------------------------|


Gtr 1

|---------------------------|
|---------------------------|
|----------------7----------|
|---10-----6-----x-----5----|
|----x-----x-----5-----x----|
|----8-----4-----------3----|

Gtr2
|---------------------------|
|---------------------------|
|---------------------12----|
|---13----10----12----12----|
|---15----11----12----------|
|---------------------------|

Gtr1
|------------------------------|
|------------------------------|
|--------------------------7---|
|----10----6------13\-5----x---|
|-----x----x-------x\-x----5---|
|-----8----4------11\-3--------|

Gtr2
|----------------------------|
|----------------------------|
|-----12----13----12-----12--|
|-----13----13----13-----12--|
|----------------------------|
|----------------------------|


Gtr1&2
|--------------------------------|
|--------------------------------|
|--------------------------------|
|--------------------------------|
|--6---------6---------------5h7-|
|--4-4-4-4-4-4--4-4-4-4--4h6-----|

Gtr1&2
|-----------------------|
|-----------------------|
|-----------------------|
|-----------------------|
|-----------------------|
|--4--4-4--6\3--5-------|


Gtr1&2
|---------------------------|
|---------------------------|
|---------------------------|
|---------------------------|
|---8----------8----------8-|
|---6-6-6-6-6--6-6-6-6-6--7-|


Gtr1&2
|--------------------|
|--------------------|
|--------------------|
|--------------------|
|--8-------9--2--9---|
|--6--6-6--7--0--7---|

Gtr1&2
|---------------------------|
|---------------------------|
|---------------------------|
|---------------------------|
|---8----------8----------8-|
|---6-6-6-6-6--6-6-6-6-6--7-|

Gtr1&2     {riff 4.5}
|--------------------|
|--------------------|
|--------------------|
|--8-------9--2--9---|
|--6--6-6--7--0--7---|

Gtr1&2
|---------------------------|
|---------------------------|
|---------------------------|
|---------------------------|
|---8----------8----------8-|
|---6-6-6-6-6--6-6-6-6-6--7-|


Gtr1&2
|--------------------|
|--------------------|
|--------------------|
|--8-------9--2--9---|
|--6--6-6--7--0--7---|

Gtr1&2
|---------------------------|
|---------------------------|
|---------------------------|
|---------------------------|
|---8----------8----------8-|
|---6-6-6-6-6--6-6-6-6-6--7-|


Gtr1&2
|--------------------|
|--------------------|
|--------------------|
|--8-------9--2--9---|
|--6--6-6--7--0--7---|


Solo------------------------------------

 Gtr1    {riff 6}
|----------------------------------|
|----------------------------------|
|----------------------------------|
|----------------------------------|
|--4-----------4---------------3h5-|
|--2--2-2-2-2--2--2-2-2-2--2h4-----|
Gtr2
|----------------------------------|
|--17b19-------17b19--------14h17--|
|----------------------------------|
|----------------------------------|
|----------------------------------|
|----------------------------------|

Gtr1
|----------------------------------|
|----------------------------------|
|----------------------------------|
|----------------------------------|
|----------------------------------|
|--2--2-2-2-2-2-2--2--4--1--3------|
Gtr 2
|---------------16-----------------|
|--14--------------------14--------|
|----------------------------------|
|----------------------------------|
|----------------------------------|
|----------------------------------|

Gtr1
|----------------------------------|
|----------------------------------|
|----------------------------------|
|----------------------------------|
|------------------------------3h5-|
|--2--2-2-2-2--2--2-2-2-2--2h4-----|
Gtr 2
|-21-21-21-21-21-21-20-20-20-20-20-20-16-16-16-16|
|------------------------------------------------|
|------------------------------------------------|
|------------------------------------------------|
|------------------------------------------------|
|------------------------------------------------|

Gtr1
|----------------------------------|
|----------------------------------|
|----------------------------------|
|----------------------------------|
|----------------------------------|
|--2--2-2-2-2-2-2--2--4--1--3------|
Gtr2
|--14~~~~~~~-----------------------|
|----------------------------------|
|----------------------------------|
|----------------------------------|
|-----------------15~~-------------|
|----------------------------------|

Gtr1
|----------------------------------|
|----------------------------------|
|----------------------------------|
|----------------------------------|
|------------------------------3h5-|
|--2--2-2-2-2--2--2-2-2-2--2h4-----|
Gt2
|----------------------------------|
|---------19--17-----19------------|
|--14b15---------18------18--17----|
|----------------------------------|
|----------------------------------|
|----------------------------------|

Gtr1
|----------------------------------|
|----------------------------------|
|----------------------------------|
|----------------------------------|
|----------------------------------|
|--2--2-2-2-2-2-2--2--4--1--3------|
Gtr 2
|----------------------------------|
|--19----------19------------------|
|------17--16-------16-----14~-----|
|----------------------------------|
|----------------------------------|
|----------------------------------|

Gtr1
|----------------------------------|
|----------------------------------|
|----------------------------------|
|----------------------------------|
|------------------------------3h5-|
|--2--2-2-2-2--2--2-2-2-2--2h4-----|
Gtr2
|----------------------------------|
|----------------------------------|
|-13~~--13---11--13-11-9-11--------|
|----------------------------------|
|----------------------------------|
|----------------------------------|

Gtr1
|----------------------------------|
|----------------------------------|
|----------------------------------|
|----------------------------------|
|----------------------------------|
|--2--2-2-2-2-2-2--2--4--1--3------|
Gtr2
|----------------------------------|
|----------------------------------|
|--9h11p9--7--9p7--6~~-------------|
|----------------------------------|
|----------------------------------|
|----------------------------------|

Gtr1
|----------------------------------|
|----------------------------------|
|----------------------------------|
|----------------------------------|
|----------------------------------|
|----------2---4\1---3-------------|
Gtr2
|----------------------------------|
|----------------------------------|
|--------11---13---10---12---------|
|----------------------------------|
|----------------------------------|
|----------------------------------|

Gtr1
|--------------------------------------|
|--------------------------------------|
|--------------------------------------|
|--------------------------------------|
|-----5--7----8--7-----8--10-----10--6-|
|--0-------0--------0---------0--------|
Gtr2
|---------------------------------------|
|-------------------12------------------|
|-------------------------11-----9------|
|--9~~----------------------------------|
|---------------------------------------|
|---------------------------------------|

Gtr1
|-------------------------------|
|-------------------------------|
|-------------------------------|
|-------------------------------|
|-----7---------7---------------|
|--0-----8---0-----6-----0-0----|
Gtr2
|------------------------------------------|
|------------------------------------------|
|--(9)---{still being held from measure 65}|
|------------------------------------------|
|------------------------------------------|
|------------------------------------------|

Gtr1
|-------------------------------|
|-------------------------------|
|-------------------------------|
|-------------------------------|
|-------------------------------|
|--6h9--6h9-6---3h4-3-----------|
Gtr2
|--------------------------------|
|--------------------------------|
|--------------------------------|
|----9h10-9----------------------|
|--------------------------------|
|--------------------------------|

Gtr1
|-------------------------------------|
|-------------------------------------|
|-------------------------------------|
|-------------------------------------|
|-----5--7-----8--7---8--10-----10--6-|
|--0--------0-------0--------0--------|
Gtr2
|-------------------------------------|
|-------------------------------------|
|-------------------------------------|
|-------------------------------------|
|--------------------------11~~-------|
|----7~~-----6~~----------------------|

Gtr1
|--------------------------------------------|
|--------------------------------------------|
|--------------------------------------------|
|--------------------------------------------|
|--3-3-3-3-3-3-5-5-5-5-5-5-6-6-6-6-----------|
|--------------------------------------------|
Gtr2
|--------------------------------------------|
|--------------------------------------------|
|--9-9-9-9-9-9-11-11-11-11-11-11-12-12-12-12-|
|--------------------------------------------|
|--------------------------------------------|
|--------------------------------------------|

Gtr1
|--------------------------------------|
|--------------------------------------|
|--------------------------------------|
|--------------------------------------|
|--10-10-10-10-10-10-9-9-9-9-9-9-8-----|
|--------------------------------------|
Gtr2
|--------------------------------------------------|
|--------------------------------------------------|
|--16-16-16-16-16-16-15-15-15-15-15-15-14-14-14-14-|
|--------------------------------------------------|
|--------------------------------------------------|
|--------------------------------------------------|

Gtr1
|-------------------------------------|
|-------------------------------------|
|-------------------------------------|
|-------------------------------------|
|-----5--7-----8--7---8--10-----10--6-|
|--0--------0-------0--------0--------|
Gtr2
|--------------------------------------|
|--------------------------------------|
|----------13~~------17~~--------------|
|--------------------------------------|
|--------------------------------------|
|--------------------------------------|

Gtr1
|---------------------------------------|
|---------------------------------------|
|---------------------------------------|
|---------------------------------------|
|---------------------------------------|
|--5-5-5-5--5-5-5-5--5-5-5-5--5-5-5-5---|
Gt2
|----------------------------------------------------|
|-17-17-17-17--17-17-17-17--17-17-17-17--17-17-17-17-|
|----------------------------------------------------|
|----------------------------------------------------|
|----------------------------------------------------|
|----------------------------------------------------|

Gtr1
|--------------------|
|--------------------|
|--------------------|
|--------------------|
|--------------------|
|---4---6\3--5-------|
Gtr2
|--------------------------------------------------------------|
|--------------------------------------------------------------|
|--------------------------------------------------------------|
|--13--15--12--14----------------------------------------------|
|--------------------------------------------------------------|
|--------------------------------------------------------------|
---------------------------------------------------------------|

Gtr1&2
|----------------------------------|
|----------------------------------|
|----------------------------------|
|----------------------------------|
|--6---------------------------5h7-|
|--4-4-4-4-4--4---4-4-4-4--4h6-----|

Gtr1&2

|--------------------------------|
|--------------------------------|
|--------------------------------|
|--------------------------------|
|--------------------------------|
|--4---4-4-4-4-4-4--4---6---3---5|

Gtr1&2
|----------------------------------|
|----------------------------------|
|----------------------------------|
|----------------------------------|
|--6---------------------------5h7-|
|--4-4-4-4-4--4---4-4-4-4--4h6-----|

Gtr1&2
|-----------------------|
|-----------------------|
|-----------------------|
|-----------------------|
|-----------------------|
|--4--4-4--6\3--5-------|


Gtr1&2
|----------------------------|
|----------------------------|
|----------------------------|
|----------------------------|
|---8----------------------8-|
|---6-6-6-6-6--6--6-6-6-6--7-|

Gtr1&2
|--------------------|
|--------------------|
|--------------------|
|--------------------|
|--8-------9--2--10--|
|--6--6-6--7--0---8--|

Gtr1&2
|----------------------------------|
|----------------------------------|
|----------------------------------|
|----------------------------------|
|--6---------------------------5h7-|
|--4-4-4-4-4--4---4-4-4-4--4h6-----|

Gtr1&2
|-----------------------|
|-----------------------|
|-----------------------|
|-----------------------|
|-----------------------|
|--4--4-4--6\3--5-------|

Chorus-----------------------------------

Gtr1&2

|----------------------------|
|----------------------------|
|----------------------------|
|----------------------------|
|----------3~~---------------|
|----------1~~---------------|


Gtr 1

|---------------------------|
|---------------------------|
|----------------7----------|
|---10-----6-----x-----5----|
|----x-----x-----5-----x----|
|----8-----4-----------3----|
Gtr2
|---------------------------|
|---------------------------|
|---------------------12----|
|---13----10----12----12----|
|---15----11----12----------|
|---------------------------|

Gtr1
|-------------------------------------|
|-------------------------------------|
|--------------------------7----------|
|----10----6------13\-5----x----------|
|-----x----x-------x\-x----5---8---8~~|
|-----8----4------11\-3----------8----|
Gtr2
|--------------------------------------|
|--------------------------------------|
|-----12----13----12-----12---10----10~|
|-----13----13----13-----12------10----|
|--------------------------------------|
|--------------------------------------|

Gtr 1

|---------------------------|
|---------------------------|
|----------------7----------|
|---10-----6-----x-----5----|
|----x-----x-----5-----x----|
|----8-----4-----------3----|
Gtr2
|---------------------------|
|---------------------------|
|---------------------12----|
|---13----10----12----12----|
|---15----11----12----------|
|---------------------------|

Gtr1
|----------------------------|
|----------------------------|
|----------------------------|
|----10----6------13\-5------|
|-----x----x-------x\-x------|
|-----8----4------11\-3------|
Gtr2
|--------------------------|
|--------------------------|
|-----12----13----12-------|
|-----13----13----13-------|
|--------------------------|
|--------------------------|

Gtr1
|---------------------|
|---------------------|
|--7------------------|
|--x------------------|
|--5-----3/5--5/6-----|
|---------------------|
Gtr2
|---------------------|
|---------------------|
|--12~~---------------|
|--12~~---------------|
|---------------------|
|---------------------|

Gtr1
|---------------------------------|
|---------------------------------|
|--9--------------5---------------|
|--x--------------x---------------|
|--7--------------3---------------|
|---------------------------------|
Gtr2
|---------------------------------|
|---------------------------------|
|---------------------------------|
|--14---14--14----10---10--10--10-|
|--14---14--14----10---10--10--10-|
|---------------------------------|

------------------------
Gtr1
|------------------------|
|------------------------|
|------------------------|
|--4----------9----------|
|--x----------x----------|
|--2----------7----------|
Gtr2
|------------------------|
|------------------------|
|------------------------|
|--4---4--4----9---9--9--|
|--4---4--4----9---9--9--|
|------------------------|

-------------------------
Gtr1
|---------------------------------|
|---------------------------------|
|--9--------------5---------------|
|--x--------------x---------------|
|--7--------------3---------------|
|---------------------------------|
Gtr2
|-----------------------------------|
|-----------------------------------|
|-----------------------------------|
|--14---14--14----10---10--10--10---|
|--14---14--14----10---10--10--10---|
|-----------------------------------|
------------------------------------|

Gtr1
|------------------------|
|------------------------|
|------------------------|
|--5-----------9---------|
|--x-----------x---------|
|--3-----------7---------|
Gtr2
|------------------------|
|------------------------|
|------------------------|
|--5---5--5----9---9--9--|
|--5---5--5----9---9--9--|
|------------------------|

Gtr1
|---------------------------------|
|---------------------------------|
|--9--------------5---------------|
|--x--------------x---------------|
|--7--------------3---------------|
|---------------------------------|
Gtr2
|---------------------------------|
|---------------------------------|
|---------------------------------|
|--14---14--14----10---10--10--10-|
|--14---14--14----10---10--10--10-|
|---------------------------------|

Gtr1
|-----------------------|
|-----------------------|
|-----------------------|
|--4----------9---7-----|
|--x----------9---7-----|
|--2----------7---5-----|
Gtr2
|-----------------------|
|-----------------------|
|-----------------------|
|--4---4--4----9---9--7-|
|--4---4--4----9---9--7-|
|-----------------------|

Gtr1
|----------------------------|
|----------------------------|
|----------------------------|
|--2------------10-----------|
|--2------------10-----------|
|--0-------------8-----------|
Gtr2
|----------------------------|
|----------------------------|
|----------------------------|
|-14---14--14----10---10--10-|
|-14---14--14----10---10--10-|
|----------------------------|

Gtr1
|-------------------------|
|-------------------------|
|-------------------------|
|--5-------------9--------|
|--5-------------9--------|
|--3-------------7--------|
Gtr2
|-------------------------|
|-------------------------|
|-12---12--12-------------|
|-12---12--12----9---9--9-|
|----------------9---9--9-|
|-------------------------|

Gtr1
|----------------------------|
|----------------------------|
|----------------------------|
|--2------------10-----------|
|--2------------10-----------|
|--0-------------8-----------|
Gtr2
|----------------------------|
|----------------------------|
|----------------------------|
|-14---14--14----10---10--10-|
|-14---14--14----10---10--10-|
|----------------------------|

Gtr1
|-----------------------|
|-----------------------|
|-----------------------|
|--4----------9---------|
|--4----------9---------|
|--2----------7---------|
Gtr2
|-----------------------|
|-----------------------|
|-----------------------|
|--4---4--4----9---9--9-|
|--4---4--4----9---9--9-|
|-----------------------|

Gtr1
|----------------------------|
|----------------------------|
|----------------------------|
|--2------------10-----------|
|--2------------10-----------|
|--0-------------8-----------|
Gtr2
|----------------------------|
|----------------------------|
|----------------------------|
|-14---14--14----10---10--10-|
|-14---14--14----10---10--10-|
|----------------------------|

Gtr1
|----------------------|
|----------------------|
|----------------------|
|----------------------|
|----------------------|
|--2-2--2-2--2-2--2-2--|
Gtr2
|-12---12---12---12----|
|---12---12---12---12--|
|----------------------|
|----------------------|
|----------------------|
|----------------------|

Gtr1
|----------------------|
|----------------------|
|----------------------|
|----------------------|
|-----------------3\0--|
|--1-1--1-1--1-1-------|
Gtr2
|-12---12---12---12----|
|---12---12---12---12--|
|----------------------|
|----------------------|
|----------------------|
|----------------------|

Gtr 1      p.m          p.m           p.m
|-------------------------------------------------|
|-------------------------------------------------|
|-------------------------------------------------|
|-------12/14--------15\14-------15/17-----17\13~-|
|-------12/14--------15\14-------15/17-----17-----|
|--0-----------0-0----------0----------0----------|
Gtr 2
|-------------------------------------------------|
|-------------------------------------------------|
|-------------------------------------------------|
|-----7/9-------10\9------10/12--------12---------|
|-----5/7--------8\7-------8/10--------10-----6~--|
|--0-------0-0---------0-----------0----------6~--|

Enjoy.
Tap to rate this tab
# A B C D E F G H I J K L M N O P Q R S T U V W X Y Z