Song name
# A B C D E F G H I J K L M N O P Q R S T U V W X Y Z

Ghostface Killah - The Champ tab

INTRO/RIFF 1
e--------------------------------------------|
B--------------------------------------------|
G-----12-14-12-14b16------12-14-12-14b16-----|
D-/14-----------------/14--------------------|
A--------------------------------------------|
E--------------------------------------------|

e--------------------------------------------|
B-------15-----------------------------------|
G-14b16----16r14--14-12-------14-12----------|
D-----------------------14-12-------14-12----|
A--------------------------------------------|
E--------------------------------------------|

VERSE                   Sometimes it goes
e--15~-12~----12~-------15~-12~----12~----------|
B----------15-------------------15-----15-12----|
G-----------------------------------------------|
D-----------------------------------------------|
A-----------------------------------------------|
E-----------------------------------------------|


BRIDGE RIFF
e------------------------12----12~-|
B--------------12~--15~-----15-----|
G-----12~-14~----------------------|
D-14~------------------------------|
A----------------------------------|
E----------------------------------|

Pretty easy. Once you get the riffs down just listen to the song to see where they go.

http://www.defjam.com/site/artist_home.php?artist_id=485
Tap to rate this tab
# A B C D E F G H I J K L M N O P Q R S T U V W X Y Z