Ghostland Observatory - Midnight Voyage tab


	Ghostland Observatory - Midnight Voyage
-------------------------------------------------------------------------------
Tabbed by: deep

Tuning: standard

Im pretty positive this is the correct way to play it
Main riff:
e|--------------------------:------------------------------------------------|
B|--------------------------:------------------------------------------------|
G|--------------------------:------------------------------------------------|
D|--------4-----------------:----4h6--6h8--4h6-------------------------------|
A|---4h6-----6--4-x-4-x-4h6-:-----------------4h6----------------------------|
E|--------------------------:------------------------------------------------|

Towards the end he just plays this power chord over and over
D|-8--------------------------------------------------------------------------|
A|-6--------------------------------------------------------------------------|
Tap to rate this tab
 
# A B C D E F G H I J K L M N O P Q R S T U V W X Y Z