Ghosts And Vodka - Bizarre Funeral tab

(Link to Ghosts and Vodka: http://www.myspace.com/gavfan)

Ghosts and Vodka - Bizarre Funeral

Tuning:
DADF#AE

Note: This is still a work in progress, I've got the first few bits covered.

   A number of times...
E--9-9/11\9--9/11\9--9/11\9-------|
A--9-9/11\9--9/11\9--9/11\9-------|
F#--------------------------------|
D---------------------------------|
A---------------------------------|
D---------------------------------|

0:43
E------------------------------------------7-|
A----------------------------------------9---|
F#-0--0-0-0-0--0--0-0-0-0--0--0-0-0-0--9-----|
D--------------------------------------------|
A--------------------------------------------|
D--------------------------------------------|
0:51

E------------------------------------------------------|
A------------------------------------------------------|
F#-12-9------------------------------------------------|
D-------9-11h9p--9-9-9-9-------9-10-12-9--9-9-9-9----9-|
A------------------------11-9---------------------11---|
D------------------------------------------------------|
Tap to rate this tab
 
# A B C D E F G H I J K L M N O P Q R S T U V W X Y Z