Song name
# A B C D E F G H I J K L M N O P Q R S T U V W X Y Z

Ghosts And Vodka - Andrea Loves Horses tab

Author/Artist: Ghosts and Vodka
Title: Andrea Loves Horses
Album: Addicts and Drunks
Transcribed by: Aqes
2006/10/7

^ = harmonic
x = rake
()= ghost note


My version of Andrea loves Horses, it's a little different from the one already
done before but I think this one is more accurate.
Fingerpicking all the way through.

Tuning (low to high): DADF#AE


-|-------0----------------------------12^-------------------------------------|
-|-----0------------9---9----------9--12^-------------------------------------|
-|---0------------10-----10--------10-----------------------------------------|
-|-3------------12---------12-------------------6/7------------0h4---7--------|
-|---------5/12--------------0---------------------------------0h4---7--------|
-|---------------------------------------4--0-4-(/7)7p0-0h2-2--0h4-4----------|
                                         (very soft)


----------------0-------------5x----------------5--\3-----------5--5----------|
----------9-----0-0h9--------5x-----------------0---------0-----0--0----------|
------7/8---------0h8-7\5---5x----------------------------0-------------------|
------------0---------7\5--5x------2/4\2----------------0---2/4----------4----|
-0-/4--------0-------------------4--------0h2/4-------4------------4p0-4---5--|
----------------------7\5-------------------------0---------------------------|



-5/7\5---------------------------------------------5-5-5p3--------------------|
-5/7\5p0-7p4---------0-----------------7^-----5--------0------/9-----7--------|
---------------------0------10--5-3/5--7^------------------------8-----8------|
-7/9\7-----0--------------------------------5---7-5-------0----0---7----------|
-------------0-2-2------------------------------------------0-----------------|
-------------------4--/9-9--7\5-----------------------------------------------|



---------------------0--3p2-----9--------|
-------3-3h5-3----3--3----------7--12^---|
-------3-3h5-3-h5---------0--------------|repeat 3x,
-----------------------------------------|then repeat final line 3x to end
-----------------------------4-----------|
-10(5)-----------------------------------|
Tap to rate this tab
 
# A B C D E F G H I J K L M N O P Q R S T U V W X Y Z