Song name
# A B C D E F G H I J K L M N O P Q R S T U V W X Y Z

Ghosts On The Radio - Standing On The Edge tab

hello this is my first tab, so don't be too harsh, um i learned this song by ear,
and its in standard tuning,
if you have any questions just email me at directorof1992@yahoo.com

s- slide

Intro
E------------------------------------------------------------------------------------|
B------------------------------------------------------------------------------------|
G------------------------------------------------------------------------------------|
D---5---7----9----7-5--5---7----9----7-5--5---7----9----7-5--5---7----9----7-5-2-2-2-|
A--7-7-9-9-10-10-9-7--7-7-9-9-10-10-9-7--7-7-9-9-10-10-9-7--7-7-9-9-10-10-9-7--2-2-2-|
E------------------------------------------------------------------------------0-0-0-|

E---------------------------------------------------------|
B---------------------------------------------------------|
G---------------------------------------------------------|
D------2-2---------2----------------------------2-2-2-2-2-|
A--7-5-2-2---------2----------55555555-77777777-2-2-2-2-2-|
E--5-7-0-0---------0----------33333333-55555555-0-0-0-0-0-|

E---------------------------------------------------------|
B---------------------------------------------------------|
G---------------------------------------------------------|
D------2-2---------2----------------------------2-2-2-2-2-|
A--7-5-2-2---------2----------55555555-77777777-2-2-2-2-2-|
E--5-7-0-0---------0----------33333333-55555555-0-0-0-0-0-|

E--------------------------------------------------------|
B--------------------------------------------------------|
G---------4------4------4--------------------------------|
D------2---5------5------5----2-2------------------------|
A--7-5-2-3--5-7-3--5-7-3--5---2-2-3s7-7-9-9-7-3-3-0-0-0--|
E--5-7-0--------------------0-0-0------------------------|

E----------------------------------------------------------|
B----------------------------------------------------------|
G----------------------------------------------------------|
D----------------------------------------------------------|
A-3s7-7-9-9-7-3-3-0-0-0--55555555-77777777-2-2-2-2-2-7-5-2-|
E------------------------33333333-55555555-0-0-0-0-0-5-3-0-|


E-----------------------------------------------------------|
B-----------------------------------------------------------|
G------------------------------------4------4---------4---9-|
D-------------------------------------5------5-7-12-9--5-7--|
A-55555555-77777777-2-2-2-2-2-7-5-2-3--5-7-3---------3------|
E-33333333-55555555-0-0-0-0-0-5-3-0-------------------------|

Solo
E-------------------------------------------------------------|
B-3-3-1-1-0-3-3-1-1-0-3-3-1-1-0-1s5-5-5-5-3-3-1-1-0-3-3-1-1-0-|
G-------------------------------------------------------------|
D-------------------------------------------------------------|
A-------------------------------------------------------------|
E-------------------------------------------------------------|

E--------------------10-10-8-8-7-10-10-8-8-7-10-10-8-8-7-7s12-|
B-3-3-1-1-0-1s5-5-5-5-----------------------------------------|
G-------------------------------------------------------------|
D-------------------------------------------------------------|
A-------------------------------------------------------------|
E-------------------------------------------------------------|

E-12-12-12-10-10-8-8-7-8-8-7-7-5----------------------------|
B-------------------------------5-5-5-5-5-5-5-5-------------|
G-----------------------------------------------------------|
D-----------------------------------------------------------|
A-----------------------------------------------------------|
E-----------------------------------------------------------|

E-12--14--15--17--17--15--15--14--12--14--15--17--17--15--15--14-|
B---12--12--12----------------------12--12--12-------------------|
G----------------------------------------------------------------|
D----------------------------------------------------------------|
A----------------------------------------------------------------|
E----------------------------------------------------------------|

E-12--12--10-10------------------12--12--10-10------------------|
B---------------12-----------------------------12---------------|
G---------------------------------------------------------------|
D---------------------------------------------------------------|
A------------------5s7-7-9-9-7-7--------------------------------|
E---------------------------------------------------------------|

Ya, that's basically it, i love this song a lot, so have fun with it...


http://www.myspace.com/ghostsontheradio
Tap to rate this tab
# A B C D E F G H I J K L M N O P Q R S T U V W X Y Z