Song name
# A B C D E F G H I J K L M N O P Q R S T U V W X Y Z

Ghostxship - Cold Truth tab

-------------------------------------------------------------------------------
			     Cold Truth - GhostXShip
-------------------------------------------------------------------------------
http://www.facebook.com/ghostxship


Tabbed by: William Silva
Email: w.silva93@hotmail.com

Tuning: Drop D

Intro
e|-------------------------------------------------------------------|
b|-------------------------------------------------------------------|
g|-------------------------------------------------------------------|
d|--0----------------------------5/7----------------8-8-8-8-8-8-5/7--|
a|--0--0-0-0-0-0-0-0-0-0-0-0-0-0-3/5--0-0-0-0-0-0-0-6-6-6-6-6-6-3/5--|
d|--0--0-0-0-0-0-0-0-0-0-0-0-0-0------0-0-0-0-0-0-0------------------|
pm     * * * * * * * * * * * * *      * * * * * * *

Verse
e|----------------------------------------------------------------|
b|----------------------------------------------------------------|
g|----------------------------------------------------------------|______
d|--0----------0---1-----4-----1---0----------0-----8/7---5/7-7\5-|     |
a|--0--0-0-0-0-0-0-1-0-0-4-0-0-1-0-0--0-0-0-0-0-0-0-6/5-0-3/5-5\3-|     |
d|--0--0-0-0-0-0-0-1-0-0-4-0-0-1-0-0--0-0-0-0-0-0-0-----0---------|     |
pm     * * * *   *   * *   * *   *    * * * *   * *     *               |
                                                                        x2
e|----------------------------------------------------------------|     |
b|----------------------------------------------------------------|     |
g|----------------------------------------------------------------|     |
d|--0----------0---1-----4-----1---3--3-3-3-3-3-3--4-4--1-1-0-----|------
a|--0--0-0-0-0-0-0-1-0-0-4-0-0-1-0-3--3-3-3-3-3-3--4-4--1-1-0-----|
d|--0--0-0-0-0-0-0-1-0-0-4-0-0-1-0-3--3-3-3-3-3-3--4-4--1-1-0-----|
pm     * * * *   *   * *   * *   *    

Chorus
e|-----------------|
b|-----------------|
g|-----------------|
d|--3~-----4--3-1--|
a|--3~-----4--3-1--|
d|--3~-----4--3-1--|

e|------------------------------------------------------------------|
b|------------------------------------------------------------------|
g|------------------------------------------------------------------|
d|-0------0-----0-----0---5/7-7\5-0------0-----0---8-8-8-8-7-7-7----|
a|-0--0-0-0-0-0-0-0-0-0-0-3/5-5\3-0--0-0-0-0-0-0-0-6-6-6-6-5-5-5----|
d|-0--0-0-0-0-0-0-0-0-0-0---------0--0-0-0-0-0-0-0------------------|
pm    * *   * *   * *   *            * *   * *   *
e|-----------------|
b|-----------------|
g|-----------------|
d|--3~-----1--4-3--|
a|--3~-----1--4-3--|
d|--3~-----1--4-3--|
pm         *  * *

e|------------------------------------------------------------------|
b|------------------------------------------------------------------|
g|------------------------------------------------------------------|
d|-0------0-----0-----0---5/7-7\5-0------0-----0---8-8-8-8-7-7-7----|
a|-0--0-0-0-0-0-0-0-0-0-0-3/5-5\3-0--0-0-0-0-0-0-0-6-6-6-6-5-5-5----|
d|-0--0-0-0-0-0-0-0-0-0-0---------0--0-0-0-0-0-0-0------------------|
pm    * *   * *   * *   *            * *   * *   *

e|-----------------|
b|-----------------|
g|-----------------|
d|--3~-----4--3-1--|
a|--3~-----4--3-1--|
d|--3~-----4--3-1--|

e|----------------------------------|
b|----------------------------------|
g|----------------------------------|
d|-0-0-------0-0-0---------0-0------| x2
a|-0-0-0-0-0-0-0-0-0-0-0-0-0-0-0-0--|
d|-0-0-0-0-0-0-0-0-0-0-0-0-0-0-0-0--|
pm     * * *       * * * *     * *

e|------------------|
b|------------------|
g|------------------|
d|--3~--1~--4--3-1--|
a|--3~--1~--4--3-1--|
d|--3~--1~--4--3-1--|

Pre-verse
e|------------------------------------|
b|------------------------------------|
g|------------------------------------|
d|--0--------------7-----7-----8---7--|
a|--0--0-0-0-0-0-0-5-0-0-5-0-0-6-0-5--|
d|--0--0-0-0-0-0-0---0-0---0-0---0----|
pm     * * * * * *   * *   * *   *

Repeat Verse

Repeat Chorus

Pre Breakdown
e|-----------------------------------------|
b|-----------------------------------------|
g|-----------------------------------------|
d|-0~--------------------------------------|
a|-0~-----0-0-0-0-0-0-0-0-0-0-0-0-0-0-0-0--|
d|-0~-----0-0-0-0-0-0-0-0-0-0-0-0-0-0-0-0--|
pm        * * * * * * * * * * * * * * * *

e|-------------------------------------------------|-----------------|-------------|
b|-------------------------------------------------|---first time----|-second time-|
g|-------------------------------------------------|-----------------|-------------|
d|-5/7-------------5/7-----5/7-8\7-5/7-------------|---4-4-----1-1---|---5/7---x-x-|
a|-3/5-000-000-000-3/5-000-3/5-6\5-3/5-000-000-000-|-0-4-4-0-0-1-1-0-|-0-3/5-0-x-x-|
d|-----000-000-000-----000-------------000-000-000-|-0-4-4-0-0-1-1-0-|-0-----0-x-x-|
pm     *** *** ***     ***             *** *** ***   *     * *     *   *     *

Breakdown
e|----------------------------------------|---------------|-------------|
b|----------------------------------------|--first time---|-second time-|
g|----------------------------------------|---------------|-------------|
d|-5/7-----0-----5/7--------8\7-5/7-----0-|-4-4-----1-1---|-5/7---4-3-1-|
a|-3/5-00000-----3/5-0-0000-6\5-3/5-00000-|-4-4-0-0-1-1-0-|-3/5-0-4-3-1-|
d|-----00000---------0-0000---------00000-|-4-4-0-0-1-1-0-|-----0-4-3-1-|
pm     ****          * ****         ****        * *     *       *

e|-------------------------------------------------|---------------|---------------|
b|-------------------------------------------------|--first time---|--second time--|
g|-------------------------------------------------|---------------|---------------|
d|-5/7-------------5/7-----5/7-8\7-5/7-------------|-4-4-----1-1---|-5/7---4-3-1-0-|
a|-3/5-000-----000-3/5-000-3/5-6\5-3/5-000-----000-|-4-4-0-0-1-1-0-|-3/5-0-4-3-1-0-|
d|-----000-----000-----000-------------000-----000-|-4-4-0-0-1-1-0-|-----0-4-3-1-0-|
pm     ***     ***     ***             ***     ***       * *     *       *
Tap to rate this tab
# A B C D E F G H I J K L M N O P Q R S T U V W X Y Z