Song name
# A B C D E F G H I J K L M N O P Q R S T U V W X Y Z

Ghoti Hook - Seasons tab

Intro

------------------------------------------------|
--565-------------------------------------------|
-5------454h5p4--575---5-5----------------------|
-----55---------7----33-3-----------------------|
------------------------------------------------|
------------------------------------------------|

Verse:
------------------|
------------------|
-555--------------|
-555-555-777-333--|
-333-555-777-333--|
-----333-555-111--|

Chorus:
-----------------------------------|
-----------------------------------|
-7777------------------------------|
-7777-7777-55555555----------------|
-5555-7777-55555555----------------|
------5555-33333333----------------|

Lead Bridge Thing:
-------------------|
5---8--5---6-------|
-5---7---5---5-----|
--5---5----5---6---|
Tap to rate this tab
# A B C D E F G H I J K L M N O P Q R S T U V W X Y Z