Ghoti Hook - Earth Angel tab

Intro
      x4
e|---------------|
B|---------------|
G|---------6---8-|
D|-6---3---6---8-|
A|-6---3---4---6-|
E|-4---1---------|


Verse
      x3              x1
e|---------------|-----------|
B|---------------|-----------|
G|---------6---8-|-----6-----|
D|-6---3---6---8-|-6---6---6-|
A|-6---3---4---6-|-6---4---6-|
E|-4---1---------|-4-------4-|


Chorus


e|-------------------------------|
B|-------------------------------|
G|-6-------6-------6-----------8-|
D|-6---6---6---6---6---6---8---8-|
A|-4---6---4---6---4---6---8---6-|
E|-----4-------4-------4---6-----|



Order:

Intro
Verse
Verse
Chorus
Verse
Chorus
Verse

Brought to you by: Nelek1
Tap to rate this tab
 
# A B C D E F G H I J K L M N O P Q R S T U V W X Y Z