Song name
# A B C D E F G H I J K L M N O P Q R S T U V W X Y Z

Ghoti Hook - Body Juggler tab

#-----------------------------------------------------------------------------#
#-- File created with Instab - http://www.pconline.com/~smcarey/instab.html --#
#-----------------------------------------------------------------------------#

Author/Artist: Ghoti Hook
Title: Body Juggler
Album: Sumo Suprise
Transcribed by: Jed
Email: CokeMan007@usa.net

Ignore top 2 strings.  Play very fast, and enjoy!
Visit my webpage at http://members.tripod.com/~CokeMan007/index.html

-----------------|-----------------|-----------------|-----------------|------|
-----------------|-----------------|-----------------|-----------------|------|
-----------------|-----------------|-----------------|-----------------|------|
-----------------|-----------------|-----------------|-----------------|------|
-3---3---3---3-3-|-----------------|-3---3---3---3-3-|-----------------|------|
-----------------|---3-3---3-------|-----------------|---3-3---3-------|------|
 Drum Intro(and guitar)/Intro(above and below)

-----------------|-----------------|-----------------|-----------------|------|
-----------------|-----------------|-----------------|-----------------|------|
-----------------|-----------------|-----------------|-----------------|------|
-----------------|-----------------|-----------------|-----------------|------|
-3---3---3---3-3-|-----------------|-----------------|-----------------|------|
-----------------|---3-3---3-------|-1-1---1-1---1-1-|---1-1---1---3---|------|


-----------------|-----------------|-----------------|-----------------|------|
-----------------|-----------------|-----------------|-----------------|------|
-----------------|-----------------|-----------------|-----------------|------|
-----------------|-----------------|-----------------|-----------------|------|
-3---3---3---3-3-|-----------------|-3---3---3---3-3-|-----------------|------|
-----------------|---3-3---3-------|-----------------|---3-3---3-------|------|


-----------------|-----------------|-----------------|-----------------|------|
-----------------|-----------------|-----------------|-----------------|------|
-----------------|-----------------|-----------------|-----------------|------|
-----------------|-----------------|-----------------|-----------------|------|
-3---3---3---3-3-|-----------------|-----------------|-----------------|------|
-----------------|---3-3---3-------|-1-1---1-1---1-1-|---------1---3---|------|
 Verse(below)

-----------------|-----------------|-----------------|-----------------|------|
-----------------|-----------------|-----------------|-----------------|------|
-----------------|-----------------|-----------------|-----------------|------|
-----------------|-----------------|-----------------|-----------------|------|
-3---3---3---3-3-|-----------------|-3---3---3---3-3-|-----------------|------|
-----------------|---3-3---3-------|-----------------|---1-1---1-------|------|


-----------------|-----------------|-----------------|-----------------|------|
-----------------|-----------------|-----------------|-----------------|------|
-----------------|-----------------|-----------------|-----------------|------|
-----------------|-----------------|-----------------|-----------------|------|
-3---3---3---3-3-|-----------------|-----------------|-----------------|------|
-----------------|---3-3---3-------|-1-1---1-1---1-1-|---1-1---1---3---|------|


-----------------|-----------------|-----------------|-----------------|------|
-----------------|-----------------|-----------------|-----------------|------|
-----------------|-----------------|-----------------|-----------------|------|
-----------------|-----------------|-----------------|-----------------|------|
-3---3---3---3-3-|-----------------|-3---3---3---3-3-|-----------------|------|
-----------------|---3-3---3-------|-----------------|---1-1---1-------|------|


-----------------|-----------------|-----------------|-----------------|------|
-----------------|-----------------|-----------------|-----------------|------|
-----------------|-----------------|-----------------|-----------------|------|
-----------------|-----------------|-----------------|-----------------|------|
-3---3---3---3-3-|-----------------|-----------------|-----------------|------|
-----------------|---3-3---3-------|-1-1---1-1---1-1-|---1-1---1---2---|------|
 Chorus(below)

-----------------|-----------------|-----------------|-----------------|------|
-----------------|-----------------|-----------------|-----------------|------|
-----------------|-----------------|-----------------|-----------------|------|
-----------------|-----------------|-----------------|-----------------|------|
-----------------|-----------------|-----------------|-----------------|------|
-3---3---3---3---|-3---3---3---3---|-1---1---1---1---|-1---1---1---1---|------|


-----------------|-----------------|-----------------|-----------------|------|
-----------------|-----------------|-----------------|-----------------|------|
-----------------|-----------------|-----------------|-----------------|------|
-----------------|-----------------|-----------------|-----------------|------|
-3---3---3---2---|-3---3---3---2---|-3---3---3---2---|-3---3---3---2---|------|
-----------------|-----------------|-----------------|-----------------|------|
 Intro/Verse/Chorus/MS(below, 4th time on last 2 bars (C C C C C . . . )

-----------------|-----------------|-----------------|-----------------|------|
-----------------|-----------------|-----------------|-----------------|------|
-----------------|-----------------|-----------------|-----------------|------|
-----------------|-----------------|-----------------|-----------------|------|
-----------------|-----------------|-0---0---0---0---|-0---0---0---0---|------|
-3---3---3---3---|-3---3---3---3---|-----------------|-----------------|------|


-----------------|-----------------|-----------------|-----------------|------|
-----------------|-----------------|-----------------|-----------------|------|
-----------------|-----------------|-----------------|-----------------|------|
-----------------|-----------------|-----------------|-----------------|------|
-----------------|-----------------|-3---3---3---2---|-3---3---3---3---|-4x---|
-1---1---1---1---|-1---1---1---1---|-----------------|-----------------|------|
 Intro/Verse/Chorus

------------------------------------------------------------------------------|
------------------------------------------------------------------------------|
------------------------------------------------------------------------------|
------------------------------------------------------------------------------|
------------------------------------------------------------------------------|
------------------------------------------------------------------------------|
Tap to rate this tab
 
# A B C D E F G H I J K L M N O P Q R S T U V W X Y Z