Song name
# A B C D E F G H I J K L M N O P Q R S T U V W X Y Z

Ghoti Hook - My Bike tab

  
this is a pretty easy freakin' song tell my if younhave any corections

Intro/Outro 
e|--------------------------------------------------------------------|
B|--------------------------------------------------------------------|
G|---7-9-7-5-7----7-9-7-----------------------------------------------|
D|-5-7-9-7-5-7--5-7-9-7-x2--------------------------------------------|
A|-5-5-7-5-3-5--5-5-7-5-----------------------------------------------|
E|-3------------3-----------------------------------------------------|
  Verse
e|--------------------------------------------------------------------|
B|--------------------------------------------------------------------|
G|---9-7-5-----9-7-----9-7-5-----9-7-x-5-x-5--------------------------|
D|-5-9-7-5---5-9-7---5-9-7-5---5-9-7-x-5-x-5--------------------------|
A|-5-7-5-3---5-7-5---5-7-5-3---5-7-5-x-3-x-3--------------------------|
E|-3---------3-------3---------3--------------------------------------|
  Chorus   
e|--------------------------------------------------------------------|
B|--------------------------------------------------------------------|
G|---5---5---5-7------------------------------------------------------|
D|-5-5-5-5-5-5-7-x2---------------------------------------------------|
A|-5-3-5-3-5-3-5------------------------------------------------------|
E|-3---3---3----------------------------------------------------------|
Tap to rate this tab
# A B C D E F G H I J K L M N O P Q R S T U V W X Y Z