Song name
# A B C D E F G H I J K L M N O P Q R S T U V W X Y Z

Ghoul - Gutbucket Blues tab

Ghoul - Splatterthrash - Gutbucket Blues
http://www.creepsylvania.com/
standard e
transcribed by Dumpster Dan (www.myspace.com/humansteak)

|---------------------------------------------------------------|
|------------6543-----8765-----10987----------------------------|
|---87650---3----653-5----875-7-----1097------------------------|
|--5-----875----------------------------------------------------|
|---------------------------------------------------------------|
|---------------------------------------------------------------| 2x

|---------------------------------------------------------------------------------------|
|-----------------bend-------------------bend-------------------------------------------|
|---15141312------13--141516171615141312-10----17-17-17---------------------------------|
|-12--------151412----------------------------17-17-17-17-15--121314151514-121314151514-|
|---------------------------------------------------------------------------------------|
|---------------------------------------------------------------------------------------|
Tap to rate this tab
 
# A B C D E F G H I J K L M N O P Q R S T U V W X Y Z