Gia Kancheli - Kviteli Potlebi tab

Gia Kancheli
Kviteli Potlebi

     E  Q    S E.  E.  E.     T E  Q.     E.  E  T E   
E||------------0-------0---|--L-----------1--------1--|
B||------------1-------1---|--------------3--------3--|
G||------------0-------0---|--------------2--------2--|
D||------------------------|--------------------------|
A||-----3----L-------------|-------2------------------|
E||------------------------|--------------------------|


  T E.  T Q    S. E  E.  T S    S. E  T Q    S E  T E  T E   
------------------1--------1-|-----------------0--L------0--|
--L---------------3--------3-|--L--------------1--L------1--|
------------------1--------1-|--L--------------0---------0--|
-----------------------------|------------------------------|
-----------------------------|----------0----L--------------|
----------0----L-------------|------------------------------|


                                                    5         
  E.  T Q    S E.  E  E  T    E.  Q    T T E  T E.  X E  X X  
--L---L--------0------0----|---------------1----------1------|
--L---L--------2------2--L-|---------------1--L-------1------|
--L---L--------0------0----|---------------2----------2------|
---------------------------|------0----L---------------------|
--------0----L-------------|---------------------------------|
---------------------------|---------------------------------|


  5                                                                 
  Q    Q    S. E  T E.  S. X X    T. E.  Q    S E  T E  T T S. X X  
---------------3--------3--L-L-|----------------0-----------0------|
---------------5--L-----5--L-L-|--L-------------1--L--------1--L-L-|
---------------4--------4--L-L-|----------------0-----------0--L-L-|
-------------------------------|-----------------------------------|
-------------------------------|---------3----L--------------------|
-------3----L------------------|-----------------------------------|


     5                                                              
  E  X T Q    S T E  T E.  E  X X    E  T. Q    S. E  E.  T E  X X  
----------------0----------0------|----------------1--------1--L-L-|
--L-------------1----L-----1------|----------------3--------3--L-L-|
--L-------------0----------0------|----------------2--------2--L-L-|
----------------------------------|--------------------------------|
---------3----L-------------------|--------2----L------------------|
----------------------------------|--------------------------------|


                           5       5                           
  T. E  Q    S E  T E.  E  S    E  X Q    S E  E.  E  T S X X  
--L------------1--------1----|--------------0------0--L-------|
--L------------3--L-----3----|--------------1------1--L-------|
---------------1--------1----|--------------0------0----------|
-----------------------------|--------------------------------|
-----------------------------|-------0----L-------------------|
--------0----L---------------|--------------------------------|


    5                                                              5  
  S X Q    S T E  T E  T E  T S. X X    T. Q    S. E  T E  T E  E  S  
---------------0--L------0-----------|-------------1--L------1-------|
---------------2---------2--L--------|-------------1---------1-------|
---------------0---------0-----------|-------------2---------2-------|
-------------------------------------|-----0----L--------------------|
------0----L-------------------------|-------------------------------|
-------------------------------------|-------------------------------|


  5                                 5                           5  
  X Q    S. E  T E  T E  E.  X X    X Q    S E.  S. T E  T E  T S  
------------3--L------3----------|-----------0------0----L--------|
------------5--L------5----------|-----------1------0-------------|
------------4--L------4----------|-----------0------0-------------|
---------------------------------|--------------------------------|
---------------------------------|----3----L----------------------|
----3----L-----------------------|------------------------------3-|


                          5           5                      
  Q    T. E.  E.  E  T E  S    Q    S X E.  E  E.  E  T X X  
----------1-------1---------|-----------0------6------------|
----------3-------3--L------|-----------1------5------------|
----------3-------3---------|-----------3------5------------|
----------------------------|-------------------------------|
--------------------------3-|--L----L-L-----------------0-L-|
--L----L--------------------|-------------------------------|


         5                                                            
  Q    S X E.  E  T E.  T S. X X    Q    T. E  T E  T S. E.  T S X X  
--------------------0---L--------|----------1--L------1--------------|
-----------2--------2------------|----------1--L------1--------1-----|
-----------0--------0------------|----------2---------2--------------|
---------------------------------|--0--------------------------0-L-L-|
--L----L-L-----------------------|-----------------------------------|
---------------------------------|-----------------------------------|


                                5       5                           5  
  E.  T.  E.  S.  E  T E  T  E  S    E  X  E  T E  T  Q    T  T E.  S  
----------0-------0---------------|--------0----------0-------0-------|
---------10------10--L------------|-------10--L------10----L----------|
---------11------11---------------|-------10---------10------11-------|
--L---L---------------------10--L-|--L--L---------------------0-----L-|
----------------------------------|-----------------------------------|
----------------------------10--L-|--L--L-----------------------------|


                               5    5                         5  
  T.  Q    S  E  T E  T T Q    S    X E  E  T T E  E.  Q    S S  
------8----L--0--L---------------|------------0---------------0-|
-----10------10---------8--------|------------0---------------1-|
-------------11--L------2--------|----2-------2---------------0-|
--L---------------------3------L-|--L---------3-----------------|
---------------------------------|---------------------3----L---|
------------------------3------L-|--L---------3-----------------|


    5                             5                             
  S X E.  E.  E  Q    S S. X X    X E.  T Q    S Q    S E  X X  
--L-L-----0------5----L-1--L-L-|--------1--------4----L--------|
--L-L-----1-------------3--L-L-|--------3------L--------6------|
--L-L-----0------2----L--------|------------------------7------|
-------------------------------|-----------------6----L--------|
-----------------2----L--------|-------------------------------|
-------------------------------|-----------------0----L--------|


                          5      5                               
  E  T. Q    S T Q    E.  S    S X T S E.  T Q    S T S E.  X X  
---------------3------0-----|--------0----------------0---------|
--------6-------------1-----|--------1-------2----L-------------|
--------7----L-0------------|--------0-------0----L---0---------|
----------------------------|-----------------------------------|
---------------0------------|----------------0----L-------------|
----------------------------|-----------------------------------|


  5                                                                    
  X Q    S Q    S T E  E  S X X    T. E.  T Q    S E  T E  T S.    X   
------------------1-------1-L-L-|-----------3------3--L------0--|--0-||
----2-------------1-------1-L-L-|--L--------6------6---------0--|--1-||
----0-------------2-------2-L-L-|-----------2------5---------2--|--0-||
-----------0----L---------------|------------------7---------3--|--3-||
--------------------------------|-------------------------------|----||
--------------------------------|-----------3----L--------------|----||




Duration Legend
---------------
W - whole
H - half
Q - quarter
E - 8th
S - 16th
T - 32nd
X - 64th
. - note dotted
|-n-|  - n-tuplets


Tablature Legend
----------------
L - tied note
x - dead note
g - grace note
(n) - ghost note
> - accentuded note
NH - natural harmonic
AH - artificial harmonic
TH - tapped harmonic
SH - semi harmonic
PH - pitch harmonic
h - hammer on
p - pull off
b - bend
br - bendRelease
pb - preBend
pbr - preBendRelease
brb - bendReleaseBend
\n/ - tremolo bar dip
\n - tremolo bar dive
-/n - tremolo bar Release up
/n\ - tremolo bar inverted dip
/n - tremolo bar return
-\n - tremolo bar Release down
S - shift slide
s - legato slide
/ -  slide into from below or out of upwards
\ -  slide into from above or out of downwards
~ - vibrato
W - wide vibrato
tr - trill
TP - tremolo picking
T - tapping
S - slap
P - pop
< - fade in
^ - brush up
v - brush down
Tap to rate this tab
 
# A B C D E F G H I J K L M N O P Q R S T U V W X Y Z