Song name
# A B C D E F G H I J K L M N O P Q R S T U V W X Y Z

Gian Marco - Se Me Olvido tab

 D              G
E--2-2---0-2-0----3-2---0-2-0---|
B--3-3-3---3---3--3-3-3---3---3-|
G--2--------------0-------------|
D--0--------------0-------------|
A--0--------------2-------------|
E--0--------------3-------------| x2

(sigue sobre la letra)
Tu maleficio me pretende
tus ironías me hacen mal
tu pasaporte se me vence
tu cintura se escondio en el mar

Me he acostumbrado a obedecerte
y me prohibiste reclamar
cuidaste que no me revele
controlaste hasta mi libertad

Em                        A
Rompí mi amor sin consultarte
G                      A
levante el ancla en altamar, me vi-
   D        F#m       G
E---------------------3-----|
B------3---------3----3-----|
G----2---2----2----2--0-----|
D--0------------------------|
A----------4----------------|
E---------------------3-----|
-nieron unas ganas de ignorarte
         Em                        A  B
me dio amnesia y no te quiero recordar

CORO:
           E              B                           A
Se me olvidó cual es tu nombre y cuantas veces me adoraste
          F#m                B
se me olvidó en un dos por tres
(mismas notas en cada párrafo)
Se me olvidó las garantías para poder reclamarte
tu boca ya se me secó

Se me olvidó la melodia que mi corazón cantaba
se me hizo agua la razón

Se me olvidó contar las veces que deje la luz prendida
restar tu vida con la mia

           E
Se me olvidó...


La diferenciia la marcaste
cuando decides opinar
de que manera es que te gusta
seducirme hasta verme llorar

Rompí mi amor sin consultarte
tu lagrima se revalsó
por el borde de tus ojos me vengaste
felizmente la verdad me conquisto

CORO (2 veces)

           E
Se me olvidó
Tap to rate this tab
# A B C D E F G H I J K L M N O P Q R S T U V W X Y Z