Song name
# A B C D E F G H I J K L M N O P Q R S T U V W X Y Z

Gian Marco - Cancion De Amor tab

  G           D           C           G7
\======/    \x=====/    \======/    \======/
 ||||||      ||||||      ||||o|      |||||o
 |o||||      |||o|o      ||o|||      |o||||
 o||||o      ||||o|      |o||||      o|||||
 ||||||      ||||||      ||||||      ||||||

   Cm          B7          Em         Am7
\x=====/    \x=====/    \======/    \======/
 |oooooIII   ||o|||      ||||||      ||||o|
 ||||o|      |o|o|o      |oo|||      ||o|||
 ||oo||      ||||||      ||||||      ||||||
 ||||||      ||||||      ||||||      ||||||


INTRO:

     G                    D                     C                  G       D
e||-3--3----------------------2--------------------------------------3-------2----|
b||-----3------3----3-----------3---3---3--3--3----1------0--0--0-----3-----3-----|
g||---0--0---0----0----0-----2----2----2--0--0------0-0--0--0--0----0--0---2---2--|
D||-----------------------0-----------0-----------2--2--------------------0-------|
A||--------3----2------------------------3--2---3-------3--2--0-------------------|
E||-3----------------3--------------------------------------------3---------------|
 ||                                                                               |
 ||1ra GUITARRA                                                                   |
 ||                                                                               |
e||------------------7-8-10~----10h12-10--8p7--8-/3~----------7-5-7--3-----5-3-2--|
b||------------7-8-10-----------------------------------------7-5-7--------3-1----|
g||---------7-9-------------------------------------------------------------------|
D||-------------------------------------------------------------------------------|
||--------------------------------------------------------------------------------|
E||------------------------------------------------------------------------(0:15)-|


      G                      G7
Hace mucho no sentía lo que siento en este día
        C                      Cm
no puedo explicarme nada solo tengo tu mirada
       G                          D
aquí clavada entre mis ojos sólo tengo un raro antojo
         C                    Cm           D
de extrañarte cada día y ser parte de tus dias.

       G                         G7
Yo no puedo hablarte nada lo único que hago es mirarte
        C                      Cm
una que otra carcajada no controlo mis palabras
e||------------------------------------------11-10----|
b||------------------------------------------13-12----|
g||---------------------------------------------------|
D||---------------------------------------------------|
A||---------------------------------------------------|
E||---------------------------------------------------|

         G                       D
  y cuando voy a buscarte mis latidos se aceleran
e||--8---7--------------------------------------2h3p2-0-2-3-|
b||-10---8--------------------------------------------------|
g||---------------------------------------------------------|
D||---------------------------------------------------------|
A||---------------------------------------------------------|
E||---------------------------------------------------------|

         C                      Cm         D
   amor con la luna llena solo quiero regalarte...
e||-5-2-3----------------------------------------3-2-0--|
b||-----------------------------------------------------|
g||-----------------------------------------------------|
D||-----------------------------------------------------|
A||-----------------------------------------------------|
E||-----------------------------------------------------|


    CORO:
   ======
              G                       C              D           G
     Una canción de amor... de la penumbra siento que nace una luz
e||-2-3-5-5/7-7------------3--8-7----------------------------------8-7-5-7--3-|
b||----------------------3-3--8-8----------------------------------8-8-8-8--3-|
g||----------------------0-0--------------------------------------------------|
D||---------------------------------------------------------------------------|
A||----------------------3-2--------------------------------------------------|
E||---------------------------------------------------------------------------|

            C          D
siento tus manos y presiento

          B7               Em
que eres tú que estas muy cerca
e||--------------------------7---7-----|
b||-------------------------------8--8-|
g||----------------------------9---9---|
D||------------------------9-----------|
A||------------------------------------|
E||------------------------------------|

       C                Am7            D
no puedo creer que tu amor abrió mi puerta.
e||---------------------------------------10-8-7h8-|
b||------------------------------------------------|
g||------------------------------------------------|
D||------------------------------------------------|
A||------------------------------------------------|
E||------------------------------------------------|

                 G                    C              D           G
        Una canción de amor de la penumbra siento que nace una luz
e||-----------7-8-10----------------------------------------------8-7-5-7--3-|
b||-10-8-7-10-------------3-3--3-3--------------------------------8-8-8-8--3-|
g||-----------------------0-0--0-0-------------------------------------------|
D||--------------------------------------------------------------------------|
A||-----------------------3-2--0---------------------------------------------|
E||------------------------------3-------------------------------------------|

            C          D
siento tus manos y presiento

          B7               Em
que eres tú que estas muy cerca
e||---------------------------10b---------|
b||-----------------------------10b--8~~--|
g||---------------------------------------|
D||---------------------------------------|
A||---------------------------------------|
E||---------------------------------------|

       C                D             G
no puedo creer que tu amor abrió mi puerta.



SOLO: (2:00)  (CASI IGUAL COMO EL INTRO SOLO QUE EL PRIMER G DURA COMO EL DOBLE)
=====
                    G                       D                   C
e||--7h8p7--7-7h8p7--7--7h8p7--7-8-10/12-10---8p7----------------------------------|
b||-------10-------10--------10------------------10~~--8p7-8-10-/12-10-8-8/10~~/12-|
g||--------------------------------------------------------------------------------|
D||--------------------------------------------------------------------------------|
A||--------------------------------------------------------------------------------|
E||--------------------------------------------------------------------------------|

                     G         D         G
e||--8-7-8p7------------10-----3-5-2-3-2-3-|
b||----------10-8--10br^---8---------------|
g||----------------------------4-5-2-4-2-4-|
D||----------------------------------------|
A||----------------------------------------|
E||---------------------------------(2:14)-|
                                          FIN DEL SOLO


       G                    G7
Sólo quiero terminar esta corta melodía

      C                          Cm
explicandote en mis dias mis deseos de quererte
e||------------------------------------------11-10--|
b||------------------------------------------13-12--|
g||-------------------------------------------------|
D||-------------------------------------------------|
A||-------------------------------------------------|
E||-------------------------------------------------|

         G                     D
   de poder volver a verte de engreirte tiernamente
e||-8----7-------------------------------------3p2h3-5--|
b||-10---8----------------------------------------------|
g||-----------------------------------------------------|
D||-----------------------------------------------------|
A||-----------------------------------------------------|
E||-----------------------------------------------------|

           C                 Cm          D
   cada minuto del dia y cantarte eternamente...
e||-7-8-8----------------------11-10--8/10--10-|
b||----------------------------13-11-10/12--12-|
g||--------------------------------------------|
D||--------------------------------------------|
A||--------------------------------------------|
E||--------------------------------------------|


CORO:
=====
              G                       C              D           G
     Una canción de amor... de la penumbra siento que nace una luz
e||--3-2--0---3----------8-7---------------------------------------8-7-5-7--3-|
b||----------------------8-8---------------------------------------8-8-8-8--3-|
g||---------------------------------------------------------------------------|
D||---------------------------------------------------------------------------|
A||---------------------------------------------------------------------------|
E||---------------------------------------------------------------------------|

            C          D
siento tus manos y presiento

          B7               Em
que eres tú que estas muy cerca
e||-------------------------/7b---7-10b------|
b||----------------------------10b-----10b---|
g||------------------------------------------|
D||------------------------------------------|
A||------------------------------------------|
E||------------------------------------------|

       C                Am7            D
no puedo creer que tu amor abrió mi puerta.
e||---------------------------------------12-10-8-7-8-10|
b||-----------------------------------------------------|
g||-----------------------------------------------------|
D||-----------------------------------------------------|
A||-----------------------------------------------------|
E||-----------------------------------------------------|

                 G                    C              D           G
       Una canción de amor de la penumbra siento que nace una luz
e||--8p7-8p7-----------------------------------------------------8-7-5-7--3-|
b||---------10----3-3--3-3---------------------------------------8-8-8-8--3-|
g||---------------0-0--0-0--------------------------------------------------|
D||-------------------------------------------------------------------------|
A||---------------3-2--0----------------------------------------------------|
E||----------------------3--------------------------------------------------|

            C          D
siento tus manos y presiento

          B7               Em
que eres tú que estas muy cerca
e||---------------------------7-10b---------|
b||-------------------------------10b--8~~--|
g||-----------------------------------------|
D||-----------------------------------------|
A||-----------------------------------------|
E||-----------------------------------------|

       C                D             G
no puedo creer que tu amor abrió mi puerta.


INTERMEDIO (3:34)
==========

   G                     C            Cm
e||------------7-8-10/12-10-8-7-7h8p7-----------|
b||-10p8-7-8-10------------------------10~~-8~~-|
g||---------------------------------------------|
D||---------------------------------------------|
A||---------------------------------------------|
E||---------------------------------------------|


OUTRO:
=====
            G               C        D           G
   uh uh uh uh uhuuuh    uhuuh uhuh uuh uuh uhuh uuuh
e||-3--5--5/7-----8-7-5-3----------------8p7-5-7--8p7-5-3-3--|
b||---------------8-8-8-3-------------------------8---7-5-3--|
g||----------------------------------------------------------|
D||----------------------------------------------------------|
A||----------------------------------------------------------|
E||----------------------------------------------------------|

           C           D       B7      Em
   uh uhuh uh uuh uuh uuh  uhuh ahah ahaah
e||--------8~~-----8~/10-----------------------------|
b||---------------------------------------10p8-10p8--|
g||--------------------------------------------------|
D||--------------------------------------------------|
A||--------------------------------------------------|
E||--------------------------------------------------|

          C                D             C                                        G
   no puedo creer que tu amor abrió mi puerta.
e||---------------------------------------8p7h8p7--10-8-7-8p7---7h8p7--------10--5b7--|
b||-7-8-7-8--------------------------------------10----------10------10~~~------------|
g||-----------------------------------------------------------------------------------|
D||-----------------------------------------------------------------------------------|
A||-----------------------------------------------------------------------------------|
E||----------------------------------------------------------------------------(4:20)-|
Tap to rate this tab
# A B C D E F G H I J K L M N O P Q R S T U V W X Y Z