Song name
# A B C D E F G H I J K L M N O P Q R S T U V W X Y Z

Gian Marco - Gota De Lluvia tab

capo II traste

PRIMERA GUITARRA (PUNTEO)
e--------------------------------|
B--------------------------------|
G--------------------------------|
D--0--2--4--5--4--2--0--0--2-----|
A-----------------------------2--|
E--------------------------------|

e--------------------------------|
B--------------------------------|
G--------------------4--4--2-----|
D--0--2--4--5--4--2--------------|
A--------------------------------|
E--------------------------------|

SEGUNDA GUITARRA (RASGUEO)

Mim - Re - Do - Sol

Mim               Re
Tu tristeza se juntó con mi alegría
Do              Sol
Y le robamos al alma tres suspiros
Mim                          Re
Decidimos empeñar nuestra rutina
Lam                   Sol
Y aplicar lo que aprendimos
                          Si7
En mi ausencia y en tu exilio

Mim            Do
Y atardecer dentro de ti

Mim              Re
Mi locura y tú serenidad se entienden
Do                  Sol
Y un extracto de tu boca me domina
Mim               Re
No tenemos ni una deuda no hay pendientes
Lam                  Sol                    Si7
No hace falta nada a cambio no hay espacio a la ironía

Mim        Do               Mim    Re          Do Re
Respírame soy para ti ..... respírame soy para ti...

Coro:
Sol              Re
Dame una gota de lluvia
         Mim
Dame una promesa
             Do                  Sol
Dame un buen comienzo para ser mejor

                Re
Dame tu sueño a diario
               Mim
Y una noche en vela
            Do                   Sol
Para ser el duende que cuida tu amor

               Re             Mim
Dame un fin de semana que viene de vuelta
         Do                      Sol
Dame una aventura en nuestra habitación
               Re                 Mim
Dame una pluma vieja y una servilleta
              Do                    Re
Siéntate a mi lado y duérmete en mi inspiración

PRIMERA GUITARRA (PUNTEO)
e--------------------------------|
B--------------------------------|
G--------------------------------|
D--0--2--4--5--4--2--0--0--2-----|
A-----------------------------2--|
E--------------------------------|

e--------------------------------|
B--------------------------------|
G--------------------4--4--2-----|
D--0--2--4--5--4--2--------------|
A--------------------------------|
E--------------------------------|

SEGUNDA GUITARRA (RASGUEO)

Mim - Re - Do - Sol


Mim              Re
Si que tu y yo tenemos segunda parte
Do                   Sol
Que tú cuerpo y mi delirio son amigos
Mim                 Re
Se que somos tan distintos tan iguales
Lam                  Sol                   Si7
La cuestión no es el cariño solo basta con mirarte

Mim          Do            Mim  Re           Do  Re
Anochecer pegado a ti.... Anochecer pegado a ti..

Coro:
Sol              Re
Dame una gota de lluvia
         Mim
Dame una promesa
             Do                  Sol
Dame un buen comienzo para ser mejor

                Re
Dame tu sueño a diario
               Mim
Y una noche en vela
            Do                 Sol
Para ser el duende que cuida tu amor

                   Re             Mim
Dame un fin de semana que viene de vuelta
         Do                      Sol
Dame una aventura en nuestra habitación
               Re                Mim
Dame una pluma vieja y una servilleta
              Do                       Re
Siéntate a mi lado y duérmete en mi inspiración

PRIMERA GUITARRA (PUNTEO)
e--------------------------------|
B--------------------------------|
G--------------------------------|
D--0--2--4--5--4--2--0--0--2-----|
A-----------------------------2--|
E--------------------------------|

e--------------------------------|
B--------------------------------|
G--------------------4--4--2-----|
D--0--2--4--5--4--2--------------|
A--------------------------------|
E--------------------------------|

SEGUNDA GUITARRA (RASGUEO)

Mim - Re - Do - Sol
Tap to rate this tab
# A B C D E F G H I J K L M N O P Q R S T U V W X Y Z