Song name
# A B C D E F G H I J K L M N O P Q R S T U V W X Y Z

Gian Marco - Donde Estaras tab

Intro:
    C                         Am
E---3-----0-------------0-----3-----0------------0---|
B------3-----1----1--3-----1-----3-----1----1--3---1-|
G----------------------------------------------------|
D----------------------------------------------------|
A---3--3-----3----3--------3--0--0-----0----0------0-|
E----------------------------------------------------|

    Fm                      G7    Am
E---3-----0-----1--0------------------|
B------3----1---------3--1--0--1------|
G---------------------------------2---|
D-------------------------------------|
A---------------------------0--0--0---|
E---1-------1-------------------------|


     Am                   F
Intentamos esconder la sonrisa de un ayer
intentamos escapar de los besos y el jugar
         C                        E
tal vez no te vuelva a ver, el verano se marcho
        F                          G7
el sol fue nuestro testigo, ahora solo soy tu amigo.

Tu en tu casa yo en la mia, amor de telepatia
un iluso en la distancia y en mis manos tu fragancia
una parte de tu pelo se ha enredado entre mis labios,
si te pienso es un consuelo, si te veo es un milagro.

CORO:
    C                         Am
E---3-----0-------------0-----3-----0------------0----|
B------3-----1----1--3-----1-----3-----1-----1--3---1-|
G--------------0-------------------------2------------|
D---------------2--------------------------2----------|
A---3--3-----3----3--------3--0--0-----0-----0------0-|
E-----------------------------------------------------|
Donde estars te estoy esperando en el mar yo te estoy

    Fm                      C    G
E---3-----0-----1--0--------0----------|
B------3----1---------3--1-----1-------|
G-------------1---------------------0--|
D--------------2-----------------------|
A---------------------------3--3-------|
E---1--1----1----------------------3---|
guardando un lugar y no te veo llegar

   (G)       G7
E----------------|
B----------------|
G----------------|
D----------0-2-3-|
A----0-2-3-------|
E--3-------------|

    C                         Am
E---3-----0-------------0-----3-----0------------0----|
B------3-----1----1--3-----1-----3-----1-----1--3---1-|
G--------------0-------------------------2------------|
D---------------2--------------------------2----------|
A---3--3-----3----3--------3--0--0-----0-----0------0-|
E-----------------------------------------------------|
Donde estars te estoy esperando en el mar yo te estoy

    Fm                      G7    Am
E---3-----0-----1--0---------------5--|
B------3----1---------3--1--0--1---5--|
G----------------------------------5--|
D----------------------------------7--|
A---------------------------0--0---7--|
E---1--1----1----------------------5--|
guardando un lugar y no te veo llegar


Las veredas de mi calle tienen tu nombre grabado
y las notas del piano (rapidamente hacer este riff)
E--------7-8-7----7--|
B-----10-------10----|
G---9----------------|
D--------------------|
...en recuerdos se quedaron
una carta con un beso se quedo en el escritorio
si te extrao no te pienso, si te veo me escondo

CORO
Tap to rate this tab
# A B C D E F G H I J K L M N O P Q R S T U V W X Y Z