Song name
# A B C D E F G H I J K L M N O P Q R S T U V W X Y Z

Gian Marco - Parte De Este Juego tab

Intro:

e||-----|-------|-------|-------|-----|-------|---------||
B||-----|-------|-------|-------|-----|-------|---------||
G||---0-|-0---0-|-----0-|-----0-|---0-|-0---0-|---------||
D||-2---|---0---|-0-----|-0-2---|-2---|---0---|---------||
C||-----|-------|---3---|-------|-----|-------|-3-2---0-||
E||-----|-------|-------|-------|-----|-------|-----3---||

Estrofa 1, 2 y 3

e||-----|-----------|-----|-----|-----------|-----|-----|
B||-0-3-|-0-3-3---3-|---3-|---0-|---0-0---0-|---0-|-----|
G||-----|-------2---|-2---|-0---|-0---------|-----|---0-|
D||-----|-----------|-----|-----|-------4---|-4---|-2---|
C||-----|-----------|-----|-----|-----------|-----|-----|
E||-----|-----------|-----|-----|-----------|-----|-----|
         (Ver Anexo)

e||-----------|-----------|-----------||
B||-----------|-1-0-------|-0-3-0-0---||
G||---0-0---0-|-----0-2---|---------2-||
D||-2-----0---|---------0-|-----------||
C||-----------|-----------|-----------||
E||-----------|-----------|-----------||

*Anexo* En la estrofa 2, se hace un cambio en una nota.
e||-----0-----||
B||-0-3-----3-||
G||-------2---||
D||-----------||
C||-----------||
E||-----------||

Coro I

e||---0-0---0---0---0-|-0-0---|-------------------|-------|
B||-0-----3---3---3---|-----3-|-1-0-1-0-1-0-1-0-3-|---0-3-|
G||-------------------|-------|-------------------|-0-----|
D||-------------------|-------|-------------------|-------|
C||-------------------|-------|-------------------|-------|
E||-------------------|-------|-------------------|-------|

e||---0-0---0---0---0-|-0-0---|---------------------|-0-----------0---||
B||-0-----3---3---3---|-----3-|-1-0-1-0-1-0-1-0-1---|---3-3-0-0-----3-||
G||-------------------|-------|-------------------0-|-----------0-----||
D||-------------------|-------|---------------------|-----------------||
C||-------------------|-------|---------------------|-----------------||
E||-------------------|-------|---------------------|-----------------||

Coro II

e||---------------|-----2-0-0-------0---|-----0-0-0-0-0-1-0-------|
B||---0-0---0---0-|-----------3-3-0---3-|-3-3---------------3-3-1-|
G||-0-----2---2---|-0-0-----------------|-------------------------|
D||---------------|---------------------|-------------------------|
C||---------------|---------------------|-------------------------|
E||---------------|---------------------|-------------------------|

e||-----------------3-3-|-------------------1-0-|
B||---0-1-0-1-1-0-1-----|-----0---0---0---0-----|
G||-2-------------------|-0-2---2---2---2-------|
D||---------------------|-----------------------|
C||---------------------|-----------------------|
E||---------------------|-----------------------|

e||-------------------------||A
B||---0-1-0-1-0-1-3-0-------||N
G||-2-----------------2-2-0-||E
D||-------------------------||X
C||-------------------------||O
E||-------------------------||2


*Anexo 2* En la cancion se tocan 2 veces el coro 2.
Este anexo es el que une el coro y la repeticion.
e||-------||
B||---0-1-||
G||-2-----||
D||-------||
C||-------||
E||-------||
Tap to rate this tab
# A B C D E F G H I J K L M N O P Q R S T U V W X Y Z