Song name
# A B C D E F G H I J K L M N O P Q R S T U V W X Y Z

Gian Marco - No Puedo Amarte tab

Help us improve GuitareTab! Take a short survey!
INTRO:

e|--------------------------------------------------8----------------|
B|--4/5-4/5-8-5------5/3-1-5/6..-6-5-------------10---9/10-9/10-8..--|
G|--------------5--------------------5-------------------------------|
D|-----------------7-------------------6/7-5..-----------------------|
A|-------------------------------------------------------------------|
E|-------------------------------------------------------------------|

SOLO: (Despues del 1er. coro)

Solo:

e|--8---8-10-8---------8-8---8---8-10-11-10-8-----12..----|
B|----5--------10-10-9-----9---9--------------9-8---------|
G|--------------------------------------------------------|
D|--------------------------------------------------------|
A|--------------------------------------------------------|
E|--------------------------------------------------------|

e|-10-8-10-8-15-11-8-11-8-11-11-8-15..--|
B|--------------------------------------|
G|--------------------------------------|
D|--------------------------------------|
A|--------------------------------------|
E|--------------------------------------|


SOLO: (Desoues del 2do. coro)

e|--8-10h11-10h11-8-10h11-10h11---8---8-10-8-11-10-8-------|
B|------------------------------9---8----------------9-8---|
G|---------------------------------------------------------|
D|---------------------------------------------------------|
A|---------------------------------------------------------|
E|---------------------------------------------------------|

e|--15-12-10-8-3..-5..-10..-12..--|
B|--------------------------------|
G|--------------------------------|
D|--------------------------------|
A|--------------------------------|
E|--------------------------------|
Related for No Puedo Amarte tab