Song name
# A B C D E F G H I J K L M N O P Q R S T U V W X Y Z

Gian Marco - Retrato tab

Poner Capo en el Traste II

(por sea caso en la escritura de la tablatura se esta tomando en cuenta el capo)

Intro: Am C Am7 D G C9 G (bis)

  Voy a hacer

  magia con un verso aquí esta noche              Voy a inten...
  G             C9              Am7
e-------3-------------3-------3-------0-------------0---------|
B-----3-----3-------3-------3-------1-----1-------1-----1-----|
G---0-----0---0---0-------0-------0-----0---0---0-----0---0---|
D-----------------------0-------2-----------------------------|
A---------------3-----------------------------0---------------|
E-3-----------------------------------------------------------|
...tar recopilar el corazón                              Poquito a
  G               C9            D
e-------3-------3-------3-------------2h3-------------3---|
B-----3-------3-------3-----3-------3-------3-------2-----|
G---0-------0-------0-----0---0---2-------2---2---3-------|
D-------------------------------0---------------0---------|
A---------2-------3---------------------------------------|
E-3-------------------------------------------------------|

  poco confesar   mi diario y mis formas de amar mis pa...
  Bm            C             Am          C
e-------2-------------0------------------------0----------|
B-----3-----3-------1-----1-------1-----1----1-----1------|
G---4-----4---4---0-----0---0---2-----2----0-----0---0----|
D---------------------------------------------------------|
A-2-------------3-------------0-----2-----3---------------|
E---------------------------------------------------------|

...labras solo muestran lo que soy              Soy tan com...

  F             D             G       C9      G
e-------1-------------2-----3-------3-------3-------------|
B-----1-----1-------3-----3-------3-------3---------------|
G---2-----2---2---2-----2-------0-------0-----------------|
D---------------0-----------------------------------------|
A-------------------------------------3-------------------|
E-1---------------------------3---------------3-----------|

...plejo como un libro de teorías                     y tan sen...
  G             C9              Am7
e-------3-------------3-------3-------0-------------0---------|
B-----3-----3-------3-------3-------1-----1-------1-----1-----|
G---0-----0---0---0-------0-------0-----0---0---0-----0---0---|
D-----------------------0-------2-----------------------------|
A---------------3-----------------------------0---------------|
E-3-----------------------------------------------------------|

...sillo si me pongo a hablar del sol             dicen que
  G               C9            D
e-------3-------3-------3-------------2h3-------------3---|
B-----3-------3-------3-----3-------3-------3-------2-----|
G---0-------0-------0-----0---0---2-------2---2---3-------|
D-------------------------------0---------------0---------|
A---------2-------3---------------------------------------|
E-3-------------------------------------------------------|

suelo ser cantante de una cantina o restaurante y ser
  Bm            C             Am          C
e-------2-------------0------------------------0----------|
B-----3-----3-------1-----1-------1-----1----1-----1------|
G---4-----4---4---0-----0---0---2-----2----0-----0---0----|
D---------------------------------------------------------|
A-2-------------3-------------0-----2-----3---------------|
E---------------------------------------------------------|

famoso con una canción de amor
  F             D             G       C9      G
e-------1-------------2-----3-------3-------3-------------|
B-----1-----1-------3-----3-------3-------3---------------|
G---2-----2---2---2-----2-------0-------0-----------------|
D---------------0-----------------------------------------|
A-------------------------------------3-------------------|
E-1---------------------------3---------------3-----------|

 Am - C - Am7 - D - G - C9 - G

  Me corto el
  pelo porque detesto peinarme                   y este tatuaje
  G             C9              Am7
e-------3-------------3-------3-------0-------------0---------|
B-----3-----3-------3-------3-------1-----1-------1-----1-----|
G---0-----0---0---0-------0-------0-----0---0---0-----0---0---|
D-----------------------0-------2-----------------------------|
A---------------3-----------------------------0---------------|
E-3-----------------------------------------------------------|

  no es una cuestión de look                    vendí ju...
  G               C9            D
e-------3-------3-------3-------------2h3-------------3---|
B-----3-------3-------3-----3-------3-------3-------2-----|
G---0-------0-------0-----0---0---2-------2---2---3-------|
D-------------------------------0---------------0---------|
A---------2-------3---------------------------------------|
E-3-------------------------------------------------------|

...guetes en la calle         dormí en la playa y en el parque me
  Bm            C             Am          C
e-------2-------------0------------------------0----------|
B-----3-----3-------1-----1-------1-----1----1-----1------|
G---4-----4---4---0-----0---0---2-----2----0-----0---0----|
D---------------------------------------------------------|
A-2-------------3-------------0-----2-----3---------------|
E---------------------------------------------------------|

enamore de mi guitarra en un balcón
  F             D             G       C9      G
e-------1-------------2-----3-------3-------3-------------|
B-----1-----1-------3-----3-------3-------3---------------|
G---2-----2---2---2-----2-------0-------0-----------------|
D---------------0-----------------------------------------|
A-------------------------------------3-------------------|
E-1---------------------------3---------------3-----------|

 Tengo en un
 libro las palabras de mi madre                 y en el recuerdo
  G             C9              Am7
e-------3-------------3-------3-------0-------------0---------|
B-----3-----3-------3-------3-------1-----1-------1-----1-----|
G---0-----0---0---0-------0-------0-----0---0---0-----0---0---|
D-----------------------0-------2-----------------------------|
A---------------3-----------------------------0---------------|
E-3-----------------------------------------------------------|
  De mi padre una oración                       me dieron
  G               C9            D
e-------3-------3-------3-------------2h3-------------3---|
B-----3-------3-------3-----3-------3-------3-------2-----|
G---0-------0-------0-----0---0---2-------2---2---3-------|
D-------------------------------0---------------0---------|
A---------2-------3---------------------------------------|
E-3-------------------------------------------------------|

  tantas cosas buenas me dieron alas y mil pruebas me enseña...
  Bm            C             Am          C
e-------2-------------0------------------------0----------|
B-----3-----3-------1-----1-------1-----1----1-----1------|
G---4-----4---4---0-----0---0---2-----2----0-----0---0----|
D---------------------------------------------------------|
A-2-------------3-------------0-----2-----3---------------|
E---------------------------------------------------------|

...ron siempre a pedir por favor
  F             D             G       C9      G
e-------1-------------2-----3-------3-------3-------------|
B-----1-----1-------3-----3-------3-------3---------------|
G---2-----2---2---2-----2-------0-------0-----------------|
D---------------0-----------------------------------------|
A-------------------------------------3-------------------|
E-1---------------------------3---------------3-----------|

 Am - C - Am7 - D - G - C9 - G (bis)

 Tengo una
 niña que me alumbra la mañana                   y una mujer
  G             C9              Am7
e-------3-------------3-------3-------0-------------0---------|
B-----3-----3-------3-------3-------1-----1-------1-----1-----|
G---0-----0---0---0-------0-------0-----0---0---0-----0---0---|
D-----------------------0-------2-----------------------------|
A---------------3-----------------------------0---------------|
E-3-----------------------------------------------------------|

que me hace leer al corazón                     tengo de...
  G               C9            D
e-------3-------3-------3-------------2h3-------------3---|
B-----3-------3-------3-----3-------3-------3-------2-----|
G---0-------0-------0-----0---0---2-------2---2---3-------|
D-------------------------------0---------------0---------|
A---------2-------3---------------------------------------|
E-3-------------------------------------------------------|

...fectos y virtudes a veces paro por las nubes cuando me
  Bm            C             Am          C
e-------2-------------0------------------------0----------|
B-----3-----3-------1-----1-------1-----1----1-----1------|
G---4-----4---4---0-----0---0---2-----2----0-----0---0----|
D---------------------------------------------------------|
A-2-------------3-------------0-----2-----3---------------|
E---------------------------------------------------------|

  hablan y yo no presto atención
  F             D             G       C9      G
e-------1-------------2-----3-------3-------3-------------|
B-----1-----1-------3-----3-------3-------3---------------|
G---2-----2---2---2-----2-------0-------0-----------------|
D---------------0-----------------------------------------|
A-------------------------------------3-------------------|
E-1---------------------------3---------------3-----------|

Hoy se
desnudan sin temor mis alegrías                      y mis
  G             C9              Am7
e-------3-------------3-------3-------0-------------0---------|
B-----3-----3-------3-------3-------1-----1-------1-----1-----|
G---0-----0---0---0-------0-------0-----0---0---0-----0---0---|
D-----------------------0-------2-----------------------------|
A---------------3-----------------------------0---------------|
E-3-----------------------------------------------------------|

tristezas las descubro sin pudor                   hoy sigo
  G               C9            D
e-------3-------3-------3-------------2h3-------------3---|
B-----3-------3-------3-----3-------3-------3-------2-----|
G---0-------0-------0-----0---0---2-------2---2---3-------|
D-------------------------------0---------------0---------|
A---------2-------3---------------------------------------|
E-3-------------------------------------------------------|

siendo el amo y dueño de mis historias y mis sueños
  Bm            C             Am          C
e-------2-------------0-----------------------------------|
B-----3-----3-------1-----1-------1-----1-----------------|
G---4-----4---4---0-----0---0---2-----2-------------------|
D---------------------------------------------------------|
A-2-------------3-------------0-----2-----3---------------|
E---------------------------------------------------------|

De mis
viernes                  por la noche         en la estación
  F                           D
e-------1-----2-------1-------------2-----3---------------|
B-----1-----1-------1-----1-------3-----3-----------------|
G---2-----2-------2-----2---2---2-----2-------------------|
D-----------------------------0-------------0-------------|
A---------------------------------------------------------|
E-1-------------1-----------------------------------------|

Am - C - Am7 - D - G - C9 - G
Am - C - Am7 - D - G - C9 – G
Am - C - Am7 - D - G - C9 – G
Am - C - Am7 - D – G
Tap to rate this tab
 
# A B C D E F G H I J K L M N O P Q R S T U V W X Y Z