Song name
# A B C D E F G H I J K L M N O P Q R S T U V W X Y Z

Gian Marco - Una Cancin De Amor tab

INTRO:

     G                    D                     C                  G       D
e||-3--3----------------------2--------------------------------------3-------2----|
b||-----3------3----3-----------3---3---3--3--3----1------0--0--0-----3-----3-----|
g||---0--0---0----0----0-----2----2----2--0--0------0-0--0--0--0----0--0---2---2--|
D||-----------------------0-----------0-----------2--2--------------------0-------|
A||--------3----2------------------------3--2---3-------3--2--0-------------------|
E||-3----------------3--------------------------------------------3---------------|
 ||                                                                               |
 ||1ra GUITARRA                                                                   |
 ||                                                                               |
e||------------------7-8-10~----10h12-10--8p7--8-/3~----------7-5-7--3-----5-3-2--|
b||------------7-8-10-----------------------------------------7-5-7--------3-1----|
g||---------7-9-------------------------------------------------------------------|
D||-------------------------------------------------------------------------------|
||--------------------------------------------------------------------------------|
E||------------------------------------------------------------------------(0:15)-|

  G                      G7
Hace mucho no sentia lo que siento en este dia
        C                      Cm
no puedo explicarme nada solo tengo tu mirada
       G                          D
aqui clavada entre mis ojos solo tengo un raro antojo
         C                    Cm           D
de extrañarte cada dia y ser parte de tus dias.

       G                         G7
Yo no puedo hablarte nada lo unico que hago es mirarte
        C                      Cm
una que otra carcajada no controlo mis palabras
        G                       D
y cuando voy a buscarte mis latidos se aceleran
      C                      Cm         D
amor con la luna llena solo quiero regalarte...


 CORO:
======

         G                       C              D           G
Una cancion de amor... de la penumbra siento que nace una luz
            C          D
siento tus manos y presiento
          B7               Em
que eres tu que estas muy cerca
       C                Am7            D
no puedo creer que tu amor abrio mi puerta.
        G                    C              D           G
Una cancion de amor de la penumbra siento que nace una luz
            C          D
siento tus manos y presiento
          B7               Em
que eres tu que estas muy cerca
       C                D             G
no puedo creer que tu amor abrio mi puerta.


       G                    G7
Solo quiero terminar esta corta melodía
      C                          Cm
explicandote en mis dias mis deseos de quererte
      G                     D
de poder volver a verte de engreirte tiernamente
       C                 Cm          D
cada minuto del dia y cantarte eternamente...


CORO:
=====
         G                       C              D           G
Una cancion de amor... de la penumbra siento que nace una luz
            C          D
siento tus manos y presiento
          B7               Em
que eres tu que estas muy cerca
       C                Am7            D
no puedo creer que tu amor abrio mi puerta.
          G                    C              D           G
Una cancion de amor de la penumbra siento que nace una luz
            C          D
siento tus manos y presiento
          B7               Em
que eres tu que estas muy cerca
       C                D             G
no puedo creer que tu amor abrio mi puerta.


OUTRO:
==========
         G               C        D           G
uh uh uh uh uhuuuh    uhuuh uhuh uuh uuh uhuh uuuh
        C           D       B7      Em
uh uhuh uh uuh uuh uuh  uhuh ahah ahaah
       C                D             C                                        
no puedo creer que tu amor abrio mi puerta.
Tap to rate this tab
 
# A B C D E F G H I J K L M N O P Q R S T U V W X Y Z