Song name
# A B C D E F G H I J K L M N O P Q R S T U V W X Y Z

Giant Drag - Pretty Little Neighbor tab

-------------------------------------------------------------------------------
			     pretty little neighbor - Giant Drag
-------------------------------------------------------------------------------
Tabbed by: tomi88
email: knightriderthe3rd@hotmail.com

Tuning: EADGBE


e|---------------------------------------------------------------------------|
B|---------------------------------------------------------------------------|
G|---------------------------------------------------------------------------|
D|--------6--------6--------6--------------------9--------9--------9---------|
A|----4-4------4-4------4-4------4-4---------7-7------7-7------7-7-----7-7---|
E|--5-------------------------------------/8--------------------------------\| x12


e|---------------------------------------------------------------------------|
B|---------------------------------------------------------------------------|
G|--10----------12------------10-----------12--------------------------------|
D|--10----------12------------10-----------12--------------------------------|
A|--8-----------10------------8------------10--------------------------------|
E|--8-----------10------------8------------10--------------------------------|

e|---------------------------------------------------------------------------|
B|---------------------------------------------------------------------------|
G|---------------------------------------------------------------------------|
D|--------6--------6--------6--------------------9--------9--------9---------|
A|----4-4------4-4------4-4------4-4---------7-7------7-7------7-7-----7-7---|
E|--5-------------------------------------/8--------------------------------\| x3

e|---------------------------------------------------------------------------|
B|---------------------------------------------------------------------------|
G|--10----------12------------10-----------12--------------------------------|
D|--10----------12------------10-----------12--------------------------------|
A|--8-----------10------------8------------10--------------------------------|
E|--8-----------10------------8------------10--------------------------------| x2

e|---------------------------------------------------------------------------|
B|--12---101010---888---101010---121212---101010---10-10-10---8-8-8----------|
G|---------------------------------------------------------------------------|
D|---------------------------------------------------------------------------|
A|---------------------------------------------------------------------------|
E|---------------------------------------------------------------------------|

e|---------------------------------------------------------------------------|
B|--10-10-10-8-------10-8-------101010-8-------101010-8----------------------|
G|-------------9-9--------9-9------------9-9------------9-9------------------|
D|---------------------------------------------------------------------------|
A|---------------------------------------------------------------------------|
E|---------------------------------------------------------------------------|

Guitar I

e|---------------------------------------------------------------------------|
B|---------------------------------------------------------------------------|
G|---------------------------------------------------------------------------|
D|--9b-----------------------------------------------------------------------|
A|---------------------------------------------------------------------------|
E|---------------------------------------------------------------------------| x2

Guitar II

e|---------------------------------------------------------------------------|
B|---------------------------------------------------------------------------|
G|---------------------------------------------------------------------------|
D|--6-6---6-6-6---6-6-6---6-6-6------9-9---9-9-9---9-9-9---9-9/11------------|
A|--4-4---4-4-4---4-4-4---4-4-4------7-7---7-7-7---7-7-7---7-7/9-------------|
E|--5-5---5-5-5---5-5-5---5-5-5------8-8---8-8-8---8-8-8---8-8/10------------| x2

Guitar I

e|---------------------------------------------------------------------------|
B|---------------------------------------------------------------------------|
G|---------------------------------------------------------------------------|
D|--9b-----------------------------------------------------------------------|
A|---------------------------------------------------------------------------|
E|---------------------------------------------------------------------------|



| /  slide up
| \  slide down
| b  bend
===============================================================================
Tap to rate this tab
# A B C D E F G H I J K L M N O P Q R S T U V W X Y Z