Song name
# A B C D E F G H I J K L M N O P Q R S T U V W X Y Z

Giant Drag - This Isnt It tab

-------------------------------------------------------------------------------

			     This isn't it - Giant Drag

-------------------------------------------------------------------------------

Tabbed by:jamhay

Email:

Tuning: Standard

   Good band and liking the song, the tab that i looked at was wrong! But its so simple! 
Iv'e
   tabbed it myself, this sounds right, enjoy.
  Please rate its my first

  ( Here are the chords for the intro, listen to the song and you'l get the rhythm easy 
)

  Intro:

e|-------------------------------------------|
B|-------------------------------------------|   Repeat this for the duration of the intro
G|------10----------5------------------------|
D|------10-(16x)----5-(8x)-----5-------------|
A|------8-----------3----------5-(8x)--------|
E|-----------------------------3-------------|

  Verse: (for verse 1 the guitar doesn't kick in till half way through and Palm muted)

"Oh     did  you    forget..."

e|---------------------------------------------------------------------------|
B|---------------------------------------------------------------------------|
G|--10-------------------5-----------/7--5-----------------------------------| (Repeat rest of verse
D|--10--(14x)------------5--(7x)-----/7--5--(8x)-----------------------------|
A|--8--------------------3-----------/5--3-----------------------------------|
E|---------------------------------------------------------------------------|

  P.M...............................................

  Chorus: (strum once and let ring for each "love", where needed)

   "Love"     "Love"   "Love"   "This isn't it...........

e|---------------------------------------------------------------------------|
B|---------------------------------------------------------------------------|
G|----3----------3---------3------------------10---------5-------------------|
D|----3----------3---------3------------------10--(14x)--5-(7x)--------------| (2x)
A|----1----------1---------1------------------8----------3-------------------|
E|---------------------------------------------------------------------------|

  Pre Verse:
e|-------------------------------------------|
B|-------------------------------------------|
G|------10----------5------------------------|
D|------10-(16x)----5-(8x)-----5-------------| (2x)
A|------8-----------3----------5-(8x)--------|
E|-----------------------------3-------------|

  Verse: (for verse  the guitar isn't Palm Muted and plays for whole of the verse)

"Oh     you erased my name..."

e|---------------------------------------------------------------------------|
B|---------------------------------------------------------------------------|
G|--10-------------------5-----------/7--5-----------------------------------|(Repeat rest of verse)
D|--10--(14x)------------5--(7x)-----/7--5--(8x)-----------------------------|
A|--8--------------------3-----------/5--3-----------------------------------|
E|---------------------------------------------------------------------------|

  Chorus: (strum once and let ring for each "love", where needed)

   "Love"     "Love"   "Love"   "This isn't it...........

e|---------------------------------------------------------------------|
B|---------------------------------------------------------------------|
G|----3----------3---------3------------------10---------5-------------|
D|----3----------3---------3------------------10--(7x)---5-(7x)--------| (2x)
A|----1----------1---------1------------------8----------3-------------|
E|---------------------------------------------------------------------|

  Solo:

  Guitar 1: same as the Pre Verse!

e|-------------------------------------------|
B|-------------------------------------------|
G|------10----------5------------------------|
D|------10-(16x)----5-(8x)-----5-------------| (2x)
A|------8-----------3----------5-(8x)--------|
E|-----------------------------3-------------|


  Guitar 2:

e|-13-13-13-13-13-13-13-13-13-13-13-13--/20-20-20-20-20-20-20-20--17-17-17-17-17-17-17-17----|
B|-------------------------------------------------------------------------------------------|
G|-------------------------------------------------------------------------------------------|(2x)
A|-------------------------------------------------------------------------------------------|
E|-------------------------------------------------------------------------------------------|

  Chorus: (strum once and let ring for each "love", where needed)

   "Love"     "Love"   "Love"   "This isn't it...........

e|---------------------------------------------------------------------|
B|---------------------------------------------------------------------|
G|----3----------3---------3------------------10---------5-------------|
D|----3----------3---------3------------------10--(7x)---5-(7x)--------| (2x)
A|----1----------1---------1------------------8----------3-------------|
E|---------------------------------------------------------------------|

  Outro: Same chords as Chorus...
e|------------------------------------------------------------------------|
B|------------------------------------------------------------------------|
G|----3------3-------3------3-----3----3---------10---------5-------------|
D|----3------3-------3------3-----3----3---------10--(7x)---5-(7x)--------| (2x)
A|----1------1-------1------1-----1----1---------8----------3-------------|
E|------------------------------------------------------------------------|

e|-------------------------------------------------------------------------------|
B|-------------------------------------------------------------------------------|
G|---3----3----3----3------------------------------------------------------------|
D|---3----3----3----3---(ring out the last chord)--------------------------------|
A|---1----1----1----1------------------------------------------------------------|
E|-------------------------------------------------------------------------------|



| /  slide up

| \  slide down

| h  hammer-on

| p  pull-off

| ~  vibrato

| +  harmonic

| x  Mute note

===============================================================================
Tap to rate this tab
# A B C D E F G H I J K L M N O P Q R S T U V W X Y Z