Song name
# A B C D E F G H I J K L M N O P Q R S T U V W X Y Z

Giant Drag - Kevin Is Gay tab

Kevin is Gay
by: Giant Drag
tabbed by: Joel S.

This is a really good song from a great band. enjoy!!

Intro:
     B                            A5
e--------------------------------------------------------------------|
B-12-11--------------------------------------------------------------|
G-------11-8-8-8-6-8-8-8-8-8-8----6-6-6-6-6-6-6-6--------------------|
D--------------------------------------------------9-9-9-9-9---------|
A--------------------------------------------------------------------|
E--------------------------------------------------------------------|

   B
e--------------------------------------------------------------------|
B--------------------------------------------------------------------|
G--6-6-6-6-6-6-8-8-8-8-8-8-8-8---------------------------------------|
D--------------------------------------------------------------------|
A--------------------------------------------------------------------|
E--------------------------------------------------------------------|

Verse:

B
Three sixty five

Seven fifty

           A5
your all i see

            B
your all i need

(Durin the Verses its just B and A5)


During the bridge part just play

D5 and B
Tap to rate this tab
# A B C D E F G H I J K L M N O P Q R S T U V W X Y Z