Song name
# A B C D E F G H I J K L M N O P Q R S T U V W X Y Z

Giant Drag - Yflmd tab

Song: YFLMD (you f*** like my dad)
by: Giant Drag
tabbed: Joel S.

pretty easy song. and people should really tab some Giant Drag songs, theyre good and 
songs.

Intro/Verse:
A--------------------------------------------------|
B--------------------------------------------------|
G--------------------------------------------------|Repeat over during the
D--7/4-4-4-4-4-2--7/4-4-4-4-4-2--------------------|verse
A--7/4-4-4-4-4-2--7/4-4-4-4-4-2--------------------|
E--5/2-2-2-2-2-0--5/2-2-2-2-2-0--------------------|

Chorus: (not 100% sure about this part)
"you and youre guns"
A--------------------------------------------------|
B--------------------------------------------------|
G--9-9-9-9-9-9-9-9-9-------------------------------|
D--9-9-9-9-9-9-9-9-9-------------------------------|
A--7-7-7-7-7-7-7-7-7-------------------------------|
E--------------------------------------------------|

Solo:
A--------5-3-----0-2-3-2-0---------------------------|
B--2---2----------------------2b---------------------|
G----2-----------------------------------------------|
D----------------------------------------------------|
A----------------------------------------------------|
E----------------------------------------------------|
Tap to rate this tab
 
# A B C D E F G H I J K L M N O P Q R S T U V W X Y Z