Song name
# A B C D E F G H I J K L M N O P Q R S T U V W X Y Z

Giant - Ill See You In My Dreams tab

Giant
I'll see you in my dreams solo
eadgbe

tabbed by andherembrac

ph= pinch harmonic
)=BEND
)=UNBEND
^=HAMMER ON OR PULL OFF
/=SLIDE

~= VIBRATO


             ph
----)^---------)----)-unbend slowly----) ( ) (----|
--10 -8------10---10-----------------10-----------|
--------9~~---------------------------------------|
--------------------------------------------------|
--------------------------------------------------|
--------------------------------------------------|
                                                  2 steps
                                                  ) (
-----------p--p------------------12-14---15-----17-------|
-/8-7------h)-h)~~~~---------/12-----------13------------|
------7-9--9--9------------------------------------------|
---------------------------------------------------------|
---------------------------------------------------------|
---------------------------------------------------------|

         __
  ^     /  \  
17-15-17-19-17-15-14-17-15-14-12----------------------|
---------------------------------15-12---)---)^-------|
---------------------------------------14-|14--12-----|
--------------------------------------------------14--|
------------------------------------------------------|
------------------------------------------------------|


                                       
-------------------------------------12--------12-|
-------------------------12-----12-13----12-13----|
-----------12------12-14------14-------14---------|
-----14-16---14-16---------14---------------------|
-/14----------------------------------------------|
--------------------------------------------------|

                                           )    )
-14-15-17-14-15-17-19-20-22-19-20-22-|-22---24--------------|
--------------------------------------------------sph-------|
-------------------------------------------------[19]~~~\---|
------------------------------------------------------------|
------------------------------------------------------------|
------------------------------------------------------------|
Tap to rate this tab
 
# A B C D E F G H I J K L M N O P Q R S T U V W X Y Z