Giddy Up Gangsta - Stretched Flesh tab

Giddy Up Gangsta
Stretched Flesh
http://www.myspace.com/giddyupgangsta
http://www.last.fm/music/giddy+up+gangsta

Tabbed by: Dylan M.
 Mobber72@yahoo.com

Tuning: Drop A

B-------------|
Gb------------|
D-------------|
A--12/-14-----|
E---X/--X-15*-|
A--12/-14-----|


B----------------------------------------|
Gb---------------------------------------|
D----------------------------------------|
A--0-0----------------0-0----------------|
E--0-0-8-7-8-5-8-7-5--0-0-8-7-8-5-8-7-5--|           \
A--0-0--0-0-0-0-0-0-0-0-0--0-0-0-0-0-0-0-|            \ Play
                                                     /  x3
B------------------------------------------------|   /
Gb-----------------------------------------------|  /
D------------------------------------------------|
A--5-5----------------8-8-------10-10------------|
E--5-5-8-7-8-5-8-7-5--8-8-8-8-8-10-10-10--10--10-|
A--5-5--7-7-7-7-7-7-7-8-8--8-8--10-10---10--10---|

B-----------------------------------------------------------------------|
Gb-----Play x2----------------------------------------------------------|
D-----------------------------------------------------------------------|
A--0-0---0-0---0-0-------0-0---0-0---0-0--------8-8-------10-10---------|
E--0-0-8-0-0-7-0-0-8-7-5-0-0-8-0-0-7-0-0-10-8-7-8-8-8-8-7-10-10-10-10-8-|
A--0-0---0-0---0-0-------0-0---0-0---0-0--------8-8-------10-10---------|

WITH THIS HATCHET

B------------------------------------|
Gb-----------------------------------|
D------------------------------------|
A--0-0-0-0-0--0-0-0--000-000-000-000-|
E--0-0-0-0-0--0-0-0--000-000-000-000-|  \
A--0-0-0-0-0--0-0-0--000-000-000-000-|   \ Play
                                        / Twice
B------------------------------------ --- /
Gb--------------------------------------- /
D------------------------------------ --- / I think this is right
A--0-0-0-0-0--0-0-0--0-5-3-0-6-5-3-5----- /
E--0-0-0-0-0--0-0-0--0-5-3-0-6-5-3-5----- /
A--0-0-0-0-0--0-0-0--0-5-3-0-6-5-3-5----- /

B--------------------------------------|
Gb-------------------------------------|
D--------------------------------------|
A--0-5-3-0-5-6-5-3-5-0-5-3-0-5-6-5-3-5-|
E--0-5-3-0-5-6-5-3-5-0-5-3-0-5-6-5-3-5-|
A--0-5-3-0-5-6-5-3-5-0-5-3-0-5-6-5-3-5-|
Drum fill..
Then again
Gtr 1.            Gtr 2.
B--------------------------------------|
Gb-------------------------------------|
D--------------------------------------|
A--0-5-3-0-5-6-5-3-5-0-5-3-0-5-6-5-3-5-|
E--0-5-3-0-5-6-5-3-5-0-5-3-0-5-6-5-3-5-|
A--0-5-3-0-5-6-5-3-5-0-5-3-0-5-6-5-3-5-|
Play it like 5 times then

B-------------|
Gb------------|
D-------------|
A--12/-14-----|
E---X/--X-----|
A--12/-14-----|

B--------------------|
Gb-Three times-------|
D--------------------|
A--0-5-3-0-5-6-5-3-5-|
E--0-5-3-0-5-6-5-3-5-|
A--0-5-3-0-5-6-5-3-5-|

Now

B-------------|
Gb------------|
D-------------|
A--12/-14-----|
E---X/--X-----|
A--12/-14-----|

Guitar 1
B--------------|
Gb-------------|
D--------------|
A--12-14-10----|Hold them out, 4 times
E---X--X--X----|
A--12-14-10----|

Starting on 3rd one

Guitar 2

B-------------------------------------------------------|
Gb------------------------------------------------------|
D-----10-9h10-12-10-9-9h10----9-10p9-12-12-10-9----9----|
A--12----------------------12-------------------12---12-|
E-------------------------------------------------------|
A-------------------------------------------------------|
Play 3 times.. the last one over
this

B------------------------------------------|
Gb-----------------------------------------|
D------------------------------------------|
A--0-0-0-0-0---0-0---0-0---0-0-0-0-0---000-|
E--0-0-0-0-0---0-0---0-0---0-0-0-0-0---000-|
A--0-0-0-0-0---0-0---0-0---0-0-0-0-0---000-|

B--------------------------------------|
Gb-------------------------------------|
D--------------------------------------|
A--000000000--000--000-000000000-12-14-|
E--000000000--000--000-000000000--X--X-|
A--000000000--000--000-000000000-12-14-|

B--------------------------------------------------------|
Gb-------------------------------------------------------|
D--------------------------------------------------------|
A--000000000--000--000-000000000-------------------------|
E--000000000--000--000-000000000-5h8-5h8p5h8p5h8-5h8-4h7-|
A--000000000--000--000-000000000-------------------------|
                   Again not exactly sure^^^


B--------------------------------------|
Gb-------------------------------------|
D--------------------------------------|
A--000000000--000--000-000000000-12-14-|
E--000000000--000--000-000000000--X--X-|
A--000000000--000--000-000000000-12-14-|

B--------------------------------------|
Gb-------------------------------------|
D--------------------------------------|
A--000000000--000--000-000000000-14-10-|
E--000000000--000--000-000000000--X--X-|
A--000000000--000--000-000000000-14-10-|

B----------------------------------------|
Gb---------------------------------------|
D----------------------------------------|
A--0-0----------------0-0----------------|
E--0-0-8-7-8-5-8-7-5--0-0-8-7-8-5-8-7-5--|           \
A--0-0--0-0-0-0-0-0-0-0-0--0-0-0-0-0-0-0-|            \ Play
                                                     /  x3
B------------------------------------------------|   /
Gb-----------------------------------------------|  /
D------------------------------------------------|
A--5-5----------------8-8-------10-10------------|
E--5-5-8-7-8-5-8-7-5--8-8-8-8-8-10-10-10--10--10-|
A--5-5--7-7-7-7-7-7-7-8-8--8-8--10-10---10--10---|

B-----------------------------------------------------------------------|
Gb-----Play x2----------------------------------------------------------|
D-----------------------------------------------------------------------|
A--0-0---0-0---0-0-------0-0---0-0---0-0--------8-8-------10-10---------|
E--0-0-8-0-0-7-0-0-8-7-5-0-0-8-0-0-7-0-0-10-8-7-8-8-8-8-7-10-10-10-10-8-|
A--0-0---0-0---0-0-------0-0---0-0---0-0--------8-8-------10-10---------|

Ending breakdown:
B---------------------------------|
Gb--------------------------------|
D---------------------------12-12-| Play 4 times
A--0-0-0-0-0--00-00-0-0-0-0-17-17-|
E--0-0-0-0-0--00-00-0-0-0-0-------|
A--0-0-0-0-0--00-00-0-0-0-0-------|

From here on out the open notes are held out, well you can hear it in the song for yourself.
B---------------------------------|
Gb---------------------------7--7-|
D---------------------------12-12-|
A--0-0-0-0-0--00-00-0-0-0-0-------|
E--0-0-0-0-0--00-00-0-0-0-0-------|
A--0-0-0-0-0--00-00-0-0-0-0-------|


B---------------------------------|
Gb--------------------------------|
D---------------------------12-12-|
A--0-0-0-0-0--00-00-0-0-0-0-17-17-|
E--0-0-0-0-0--00-00-0-0-0-0-------|
A--0-0-0-0-0--00-00-0-0-0-0-------|

B---------------------------------|
Gb---------------------------7--7-|
D---------------------------12-12-|
A--0-0-0-0-0--00-00-0-0-0-0-------|
E--0-0-0-0-0--00-00-0-0-0-0-------|
A--0-0-0-0-0--00-00-0-0-0-0-------|

B---------------------------------|
Gb--------------------------------|
D---------------------------12-12-|Hold it out..
A--0-0-0-0-0--00-00-0-0-0-0-17-17-|
E--0-0-0-0-0--00-00-0-0-0-0-------|
A--0-0-0-0-0--00-00-0-0-0-0-------|

Thats it.. in all its flesh eating stretching glory.
Tap to rate this tab
 
# A B C D E F G H I J K L M N O P Q R S T U V W X Y Z