Song name
# A B C D E F G H I J K L M N O P Q R S T U V W X Y Z

Giegiel - Penasaran tab

Help us improve GuitareTab! Take a short survey!
A x02220
Bm x24432
G 320002
F# 244322


Intro 1
2x
------------------------------------------------------------------------------|
------------------------------------------------------------------------------|
-----------9-7----------------------------------------------------------------|
--9-7---------9-7-----7-9-7-9-------------------------------------------------|
-------9-7--------9-----------------------------------------------------------|
------------------------------------------------------------------------------|


Intro 2
2x
------------------------------------------------------------------------------|
------------------------------------------------------------------------------|
---7p6-7p6-7--9-6---6---6p4-6p4-6---7-4---4-----------------------------------|
------------------9---------------------7-------------------------------------|
------------------------------------------------------------------------------|
------------------------------------------------------------------------------|


Bm Bm Bm Bm
Kalau belum bisa aku mendapatkan
A Bm
Oh gadis manis yang menjadi rebutan
Bm
Sungguh nasib aku jadi penasaran
A Bm
Sampai mati pun akan ku perjuangkan


Bm A Bm
Memang dia manis menawan
Bm A G F#
Di antara gadis yang ada

Bm A Bm
Aku pun tak merasa hairan
Bm A G F#
Kalau dia yang menjadi rebutan


Bm Bm Bm Bm
Sungguh nasib aku jadi penasaran
A Bm
Sampai mati pun akan ku perjuangkan


[solo 1]

------------------------------------------------------------------------------|
------------------------------------------------------------------------------|
----------------7-6----------------------------------------7-6----------------|
----------7-9-9------9-7-9-------------7-9-9--------7-9-9------9-7-9----------|
---7-9-10---------------------7-9---10-------7-9-10---------------------------|
------------------------------------------------------------------------------|

2x
------------------------------------------------------------------------------|
------------------------------------------------------------------------------|
---7p6-7p6-7--9-6---6---6p4-6p4-6---7-4---4-----------------------------------|
------------------9---------------------7-------------------------------------|
------------------------------------------------------------------------------|
------------------------------------------------------------------------------|

[solo 2]

--------------------------------------------------------------------------------------|
--/10------------/12-----------------/10---12rb-12b-----------------------------------|
------9-7-6----------11------------------9-----------11-11--9-7-9-7-------------------|
------------9-7---------12-11-9-7-----------------------------------9-7---------------|
------------------------------------------------------------------------9-7-----------|
----------------------------------------------------------------------------10-7------|


Bm
Semua teruna gila padanya
Bm
Semua teruna meronta-ronta

A Bm
-----------------------|
-----------------------|
-----------------------|
--7---7---9---9--------|
----7-------9----------|
-----------------------|


Bm
Untuk mendapat kasih sayangnya
Bm A G F#
Bermacam-macam cara dia yang ada
Bm A G F#
Tidak ubahnya seperti perlumbaan

[ulang solo 1]

[solo 3]

-------------------------------------------12----12----12----12----12---------|
--10-10-10-10-10---12--12--12--12----12------14----14----14----14----14-------|
----9--9--9--9--9----11--11--11--1111--11------14----14----14----14----14-----|
------------------------------------------------------------------------------|
------------------------------------------------------------------------------|
------------------------------------------------------------------------------|

---14-14---12-10-12-10--------------------------------------------------------|
-----------------------12-10--------------------------------------------------|
------------------------------11-999------------------------------------------|
--------------------------------------12-9------------------------------------|
------------------------------------------------------------------------------|
------------------------------------------------------------------------------|


Bm Bm Bm Bm
Sungguh nasib aku jadi penasaran
A Bm
Sampai mati pun akan ku perjuangkan

Bm
Semua teruna gila padanya

A Bm
-----------------------|
-----------------------|
-----------------------|
--7---7---9---9--------|
----7-------9----------|
-----------------------|


Bm
Semua teruna meronta-ronta
Bm
Untuk mendapat kasih sayangnya
Bm A G F#
Bermacam-macam cara dia yang ada
Bm A G F#
Tidak ubahnya seperti perlumbaan

Bm Bm Bm Bm
Sungguh nasib aku jadi penasaran
A Bm
Sampai mati pun akan ku perjuangkan

[ulang intro 1]

----------------------------------------------|
----------------------------------------------|
----------------7-6---------------------------|
----------7-9-9------9-7-9--------------------|
---7-9-10-------------------------------------|
----------------------------------------------|
Related for Penasaran tab