Song name
# A B C D E F G H I J K L M N O P Q R S T U V W X Y Z

Gifted But Twisted - Ice Cream Man tab

Main Riff

e--------------------------------------------------------------------| 
b--------------------------------------------------------------------|
g--------------------------------------------------------------------|
d---2--67---9-9--77---2--67---9-9--77---2--67---9-9--77---66666-7-9--|
a---2--67---9-9--77---2--67---9-9--77---2--67---9-9--77---66666-7-9--|
E---0--45---7-7--55---0--45---7-7--55---0--45---7-7--55---44444-5-7--| (X2)

Intro Solo

e--------------------------| 
b----------7-8-7-----------| 
g---9--8-9-------9--8-9-8--| 
d--------------------------| 
a--------------------------| 
E--------------------------| 

Verse Palm Mute

e------------------------------------------| 
b------------------------------------------| 
g------------------------------------------| 
d---2-2-2-6-7-7-7-11-11-11-11-10-10-10-10--|
a---2-2-2-6-7-7-7-11-11-11-11-10-10-10-10--| 
E---0-0-0-4-5-5-5-9--9--9--9--8--8--8--8---| (X3)


e------------------------| 
b------------------------| 
g------------------------| 
d--6-6-6-6-6-7--9--9--9--| 
a--6-6-6-6-6-7--9--9--9--| 
E--4-4-4-4-4-5--7--7--7--|

e--------------------------------------------------------------------| 
b--------------------------------------------------------------------|
g--------------------------------------------------------------------|
d---2--67---9-9--77---2--67---9-9--77---2--67---9-9--77---66666-7-9--|
a---2--67---9-9--77---2--67---9-9--77---2--67---9-9--77---66666-7-9--|
E---0--45---7-7--55---0--45---7-7--55---0--45---7-7--55---44444-5-7--|

Choras

e--------------------------------------------------------------------| 
b--------------------------------------------------------------------|
g--------------------------------------------------------------------|
d---2--67---9-9--77---2--67---9-9--77---2--67---9-9--77---66666-7-9--|
a---2--67---9-9--77---2--67---9-9--77---2--67---9-9--77---66666-7-9--|
E---0--45---7-7--55---0--45---7-7--55---0--45---7-7--55---44444-5-7--|

Verse 2

e----------------------------| 
b----------------------------|
g--9-9-9-9-99-11-8-9--8-6-4--|
d----------------------------|
a----------------------------|
E----------------------------|

e--770077007700770077007700770077007700770077007700--------------| 
b---------------------------------------------------8888888877777|
g----------------------------------------------------------------|
d----------------------------------------------------------------|
a----------------------------------------------------------------|
E----------------------------------------------------------------|

*note: for the open notes, you want to keep your finger on the 7th fret to create a harmonic.

Choras

e--------------------------------------------------------------------| 
b--------------------------------------------------------------------|
g--------------------------------------------------------------------|
d---2--67---9-9--77---2--67---9-9--77---2--67---9-9--77---66666-7-9--|
a---2--67---9-9--77---2--67---9-9--77---2--67---9-9--77---66666-7-9--|
E---0--45---7-7--55---0--45---7-7--55---0--45---7-7--55---44444-5-7--| (X2)
Tap to rate this tab
# A B C D E F G H I J K L M N O P Q R S T U V W X Y Z