Song name
# A B C D E F G H I J K L M N O P Q R S T U V W X Y Z

Gifted But Twisted - Ice Cream Man tab

-------------------------------------------------------------------------------
			     Ice Cream Man - Gifted But Twisted
-------------------------------------------------------------------------------
Tabbed by: Weirdbag

Tuning: EADGBe

Intro:

e|-----------------------------|       \
B|-----------------------------|        |
G|------------6---6--4--4------|        |
D|--2---6-7---6---6--4--4------|    x3  |
A|--2---6-7---4---4--2--2------|        |
E|--0---4-5--------------------|        |
                                        |
                                        |---  x3
e|------------------------------|       |
B|------------------------------|       |
G|------------------------------|       |
D|--6-6-6-6-6-7--9--------------|       |
A|--6-6-6-6-6-7--9--------------|       |
E|--4-4-4-4-4-5--7--------------|      /
p.m.---------

Lead Guitar
e|--------------------------| 
B|----------7-8-7-----------| 
G|--9--8-9-------9----8-9-8-| 
D|--------------------------| 
A|--------------------------| 
E|--------------------------| 


Verse:

e|----------------------------------|
B|----------------------------------|
G|----------------------------------|
D|------------------6-6-6-6-4-4-4-4-|    x3
A|--2-2-2-6-7-7-7-7-4-4-4-4-2-2-2-2-|
E|--0-0-0-4-5-5-5-5-----------------|
p.m.-------------------------------

e|--------------------------------------|
B|--------------------------------------|
G|--------------------------------------|
D|------------7--9--9--9--9\------------|
A|--6-6-6-6-6-7--9--9--9--9\------------|
E|--4-4-4-4-4-5--7--7--7--7\------------|
p.m.---------


e|-----------------------------|  
B|-----------------------------|  
G|------------6---6--4--4------|  
D|--2---6-7---6---6--4--4------|   x3
A|--2---6-7---4---4--2--2------|     
E|--0---4-5--------------------|     
                                
e|------------------------------|      
B|------------------------------|      
G|------------------------------|      
D|--6-6-6-6-6-7--9--------------|      
A|--6-6-6-6-6-7--9--------------|      
E|--4-4-4-4-4-5--7--------------|      
p.m.---------


Chorus:

e|-----------------------------|  
B|-----------------------------|  
G|------------6---6--4--4------|  
D|--2---6-7---6---6--4--4------|   x3
A|--2---6-7---4---4--2--2------|     
E|--0---4-5--------------------|     
                                
e|------------------------------|      
B|------------------------------|      
G|------------------------------|      
D|--6-6-6-6-6-7--9--------------|      
A|--6-6-6-6-6-7--9--------------|      
E|--4-4-4-4-4-5--7--------------|     

Verse 2:

e|-----------------------------|  
B|-----------------------------|  
G|------------6---6--4--4------|  
D|--2---6-7---6---6--4--4------|   x3
A|--2---6-7---4---4--2--2------|     
E|--0---4-5--------------------|     
                                
e|------------------------------|      
B|------------------------------|      
G|------------------------------|      
D|--6-6-6-6-6-7--9--------------|      
A|--6-6-6-6-6-7--9--------------|      
E|--4-4-4-4-4-5--7--------------|   
p.m.---------

Chorus:

e|-----------------------------|       \
B|-----------------------------|        |
G|------------6---6--4--4------|        |
D|--2---6-7---6---6--4--4------|    x3  |
A|--2---6-7---4---4--2--2------|        |
E|--0---4-5--------------------|        |
                                        |
                                        |---  x4
e|------------------------------|       |
B|------------------------------|       |
G|------------------------------|       |
D|--6-6-6-6-6-7--9--------------|       |
A|--6-6-6-6-6-7--9--------------|       |
E|--4-4-4-4-4-5--7--------------|      /
p.m.---------


You can check out the first version for the other lead stuff ;)
Tap to rate this tab
 
# A B C D E F G H I J K L M N O P Q R S T U V W X Y Z