Song name
# A B C D E F G H I J K L M N O P Q R S T U V W X Y Z

Giggs - You Raised Me tab

Standard Tuning
obviously the song has echo, so you will need an fx pedal to do that (or a really large hall!)

--------------------------------------------------------|
--------------------------------------------------------|
--------------------------------3-----------------------|
----------1-------------0h1-----------------------------|
--1h3------------------------------------1h3----3-------|
-------3------------------------------------------------|



---------------------------------------------------------|
---------------------------------------------------------|
---------------------------------------------------------|
----------1-------------0h1------------------------------|
--1h3------------------------------------1h3----3--------|
-------3-------------------------------------------------|


This repeats all the way through the song.
Enjoy!
Tap to rate this tab
# A B C D E F G H I J K L M N O P Q R S T U V W X Y Z