Song name
# A B C D E F G H I J K L M N O P Q R S T U V W X Y Z

Gigi D'agostino - Riddle tab

Author: Gigi D'Agostino
Title : The Riddle
Tabbed by: Dorin (SiT)

This is a cover of Nick Kershaw's "The Riddle" back in the 80's. So
if you want to play the whistle bit on guitar, no matter the version, use this tab:

e---------------------------|------------------------------||
B---------------------------|-----------------------------o||
G---1-2*-2-4-2-1---------1-1|---1-2.-4.-2-1----------------||
D-4--------------4-2-2-4----|-4--------------4-2-4--4-2-2-o||
A---------------------------|------------------------------||
E---------------------------|------------------------------||

e--------------------]
B-2-5-3-2------------]
G---------4-2--------]
D-------------4-2.-4*]
A--------------------]
E--------------------]

-* let the note ring
-. 1+1/2 measures (let the note ring a half measure more than usual)
Pardon my English, but if you have somenthing not understood feel free to e-mail me :tomsofts@yahoo.com.
Tap to rate this tab
# A B C D E F G H I J K L M N O P Q R S T U V W X Y Z